Stereophonics - Maybe Tomorrow Chords & Tabs

 

Maybe Tomorrow Chords & Tabs

Stereophonics Chords & Tabs

Version: 1 Type: Tab 0 ratings
1 star 2 stars 3 stars 4 stars 5 stars
comments

Maybe Tomorrow Tab

   
----------------------------------------------------------------------------
                     Maybe tomorrow-Stereophonics
----------------------------------------------------------------------------
Wicked song but nobody had tabbed the background guitar or done the solo, so i had a go.

Standard tuning

Chords

e-3-3-3-3-3-3-3-3-3-3-3-3-------------0-0-0-0-0-0-|
B-3-3-3-3-3-3-3h4-4-4-4-4-------------1-1-1-1-1-1-|
G-3-3-3-3-3-3-3h5-5-5-5-5-3-3-3-3-3-3-2-2-2-2-2-2-|
D-1-1-1-1-1-1-3h5-5-5-5-5-3h5-5-5-5-5-3-3-3-3-3-3-|
A-------------3-3-3-3-3-3-3h5-5-5-5-5-3-3-3-3-3-3-|
E-------------------------3-3-3-3-3-3-------------|

This is the main part and is played all the way through the song(I don't no the name of 
chords, sorry)

This is the background guitar piece.

e------------6---------------6-6-|
B-----6--8-----8-------6-8---8-8-|
G-5h7------7-------5h7-----------|
D--------------------------------|
A--------------------------------|
E--------------------------------|
[ Tab from: http://www.guitartabs.cc/tabs/s/stereophonics/maybe_tomorrow_tab.html ]
This is play in the intro and the chorus, you can figure out how many times its played.

Solo

e------------------------------------------------------------|
B-6h8-8-8/10~~-8-10-10b11~~-8-10-10b11-8-10b11-8-10b11-8\6~~-|
G------------------------------------------------------------|
D------------------------------------------------------------|
A------------------------------------------------------------|
E------------------------------------------------------------|

e---------------------------------------------------------------------|
B-6h8-8-8/10~~-8-10-10b11~~-8-10-10b11-8-10b11-8-10sb12-12-12sr10p8~~-|
G---------------------------------------------------------------------|
D---------------------------------------------------------------------|
A---------------------------------------------------------------------|
E---------------------------------------------------------------------|

You have to hold that 8 for ages at the end of the solo. I wasn't sure on the solo but 
pretty sure the rest of the song is right.

Enjoy!
Comments