Stereophonics - Maybe Tomorrow Chords & Tabs

 

Maybe Tomorrow Chords & Tabs

Stereophonics Chords & Tabs

Version: 1 Type: Bass Tab 0 ratings
1 star 2 stars 3 stars 4 stars 5 stars
comments

Maybe Tomorrow Bass Tab

Maybe Tomorrow by Stereophonics (You Gotta Go There To Come Back)

Standard tuning

Tabbed by Xeroxbassist

xeroxbassist@aol.com
[ Tab from: http://www.guitartabs.cc/tabs/s/stereophonics/maybe_tomorrow_btab.html ]
::Verse and Chorus::
   
G|------------------------|
D|------------------------|
A|-6-66--3-33-------------|
E|-------------3-33--1-11-|

Repeat as required

::Solo::

G|------------------------|
D|------------5-55-3-33---|
A|-3-33--5-55-------------|
E|------------------------|

Listen out for the places were G (E3) is held.


Very easy.

Cheers

Andy
Comments