Stereophonics - Maybe Tommorow Chords & Tabs

 

Maybe Tommorow Chords & Tabs

Stereophonics Chords & Tabs

Version: 1 Type: Tab 2 ratings
1 star 2 stars 3 stars 4 stars 5 stars
comments

Maybe Tommorow Tab

Song:Maybe Tommorow
Artist:Stereophonics
Album:You Gotta Go There To Come Back


hi, it's barney here theres been some requests for this song so i decicded to tab it!!!!
it's in standard tuning and theres some cool funk licks in the middle.



e-------|---------------6------------------------------------
B-------|---6-8-----8-----8----------------------------------
G-------|-7-----7-7---7--------------------------------------
D-------|----------------------------------------------------  x 4
A-------|----------------------------------------------------
E-------|----------------------------------------------------

listen to record for strumming pattern

Verses: Bb - Bb - G minor - F

Chorus:alot of times

e---3---3---3---3--------------------------------------------
B-3---6---3---6----------------------------------------------
G------------------------------------------------------------   
D------------------------------------------------------------
A------------------------------------------------------------
E------------------------------------------------------------

chorus 2 guiatr 2

e-------|---------------6------------------------------------
B-------|---6-8-----8-----8----------------------------------
G-------|-7-----7-7---7--------------------------------------
D-------|----------------------------------------------------  x 4
A-------|----------------------------------------------------
E-------|----------------------------------------------------

After chorus guitar two
[ Tab from: http://www.guitartabs.cc/tabs/s/stereophonics/maybe_tommorow_tab.html ]
e------------------------------------------------------------
B------------------------------------------------------------
G----10-12----10-14----10-15\12-15\12-15\10------------------
D-12-------12-------12---------------------------------------
A------------------------------------------------------------
E------------------------------------------------------------


e------------------------------------------------------------
B------------------------------------------------------------
G----10-12----10-14----10-15\12-15\12-15-15------------------
D-12-------12-------12---------------------------------------
A------------------------------------------------------------
E------------------------------------------------------------

Bridge

e------------------------------------------------------------
B------------------------------------------------------------
G-12~~~~~~~~~~~~~~~~~~~~~~~~~~~~~~~~~~~~~~~~~~~~~~~~~~~~~~~~~  x 2
D-----0-3-5-0-3-5---0-3-5-0-3-5---0-3-5-0-3-5---0-3-5-0-3-5--
A------------------------------------------------------------
E------------------------------------------------------------

fade out
e----8-------------------------------------------------------
B-11---------------------------------------------------lots of times
G------------------------------------------------------------
D------------------------------------------------------------
A------------------------------------------------------------
E------------------------------------------------------------

intro
verse
chorus
verse
chorus
after chorus
bridge
chorus
fade out 
Comments