Stereophonics - Madame Helga Chords & Tabs

 

Madame Helga Chords & Tabs

Stereophonics Chords & Tabs

Version: 2 Type: Bass Tab 0 ratings
1 star 2 stars 3 stars 4 stars 5 stars
comments

Madame Helga Bass Tab

   
Stereophonics: Madame Helga
Tabbed by: Punk Rock Kid
Tuning; Standard:  E A D G
If dere is ne problems mail me @ Mini_Mosh_666@hotmail.com

Dis is a very easy song 2 play but very kwl...dis is my 1st tab so be nice plz

Intro:
G|-----------------------------------------
D|-----------------------------------------
A|------2-2-2-2-2-2-2-2-2-2-2-2-2-2-2-2----         
E|-----------------------------------------

Verse:
G|-------------------------------------------------2----------
D|---------------------------------------0-2-0-3-4---3-2-0----      
A|---2-2-x-x-x-x-x-x-2-2-x-x-x-x-x-x---2----------------------      
E|------------------------------------------------------------

Bridge:
G|-------------------------------------------------------------
D|--00000000000000000000000000000000---------------------------
A|-------------------------------------------------------------     
E|--------------------------------------2-3--4-5--6-7--8-9-----

Chorus:
G|---------------------------------------------
D|---0000000000000000--------------------------
A|---------------------------------2-4-5-4-2---
E|----------------------00000000---------------

G|-------------------------------------------
D|---------------------00000000--------------
A|-------------------------------------------
E|---3333333333333333-------------0h2-3-4-5--
[ Tab from: http://www.guitartabs.cc/tabs/s/stereophonics/madame_helga_btab_ver_2.html ]
G|-------------------------------------------
D|---0000000000000000------------------------
A|-------------------------------2-4-5-4-2---
E|---------------------00000000--------------

G|-------------------------------------------------------------
D|---------------------00000000--------------------------------
A|-------------------------------3-555-3-555-3-555-3-555-------
E|---3333333333333333------------------------------------------


Alt. Chorus:    They play this @ the very end instead of the normal chorus
G|-------------------------------------------
D|---0000000000000000------------------------
A|-------------------------------2-4-5-4-2---
E|---------------------00000000--------------

G|------------------------------------------
D|---------------------00000000-------------
A|------------------------------------------
E|---3333333333333333------------0h2-3-4-5--

G|--------------------------------------------
D|---0000000000000000-------------------------
A|--------------------------------2-4-5-4-2---
E|----------------------00000000--------------

G|-----------------------------------------------------
D|---------------------00000000------------------------
A|--------------------------------2-3--4-5--6-7--8-9---
E|---3333333333333333----------------------------------

Order

Intro x4
Verse x4
Bridge
Chorus
Verse x4
Chorus
Intro x4
Alt Chorus

Pretty simple if you ask me any comments, death threats mail me @ Mini_Mosh_666@hotmail.com
Comments