Stereophonics - Madame Helga Chords & Tabs

 

Madame Helga Chords & Tabs

Stereophonics Chords & Tabs

Version: 1 Type: Bass Tab 0 ratings
1 star 2 stars 3 stars 4 stars 5 stars
comments

Madame Helga Bass Tab

   
Madame Helga by Stereophonics (You Gotta Go There To Come Back)

Standard tuning

Tabbed by xeroxbassist

xeroxbassist@aol.com
 
I'm not 100% sure if this is correct

::Intro::

G|-----------------------|
D|-----------------------|
A|-22222222222222222-etc-|
E|-----------------------|

::Verse::
   
G|------------------------------2-2-4|--------------------------------------|
D|----2-2-2---2-2-2---0-2-2-3-4--2---|----2-2-2---2-2-2---0-2-2-3-4-2-0-----|
A|-2-2-----2-2-----2-2---------------|-2-2-----2-2-----2-2-------------2-0--|
E|-----------------------------------|--------------------------------------| X 2

::Bridge::

G|------------|-------------------------------|
D|------------|-------------------------------|
A|-555-5-555-5|------------000-111-222-333-444|
E|------------|222-333-444--------------------|

::Chorus::
[ Tab from: http://www.guitartabs.cc/tabs/s/stereophonics/madame_helga_btab.html ]
G|----------------------------------------------------------------------------|
D|----------------------------------------------------------------------------|
A|-5555555555555555-7777777777777-4-5-4-2-0-------------------555555555-------|
E|------------------------------------------33333333333333333----------2-3-4-5|


G|------------------------------------------------------------------------------------------|
D|------------------------------------------------------------------------------------------|
A|-5555555555555555-7777777777777-4-5-4-2-0-------------------555555555-3-5-3-5-3-5-3-5-3-5-|
E|------------------------------------------33333333333333333-------------------------------|



::Solo::

::riff 1::

G|-4-2-----------------|
D|----4-3-2-0-2h3p2-0--|
A|--------------------2|
E|---------------------|x3

::riff 2::

G|-4-2--------|
D|-----4-3-0-2|
A|------------|
E|------------|

::Outro::

G---------------------------------|
D|--------------------------------|
A|-----------000-111-222-333-444-5|
E|222-333-444---------------------|

:+:Song Order:+:

Intro x 1
Verse X 2
Bridge x 1
Chorus x 1
Verse x 2
Bridge x 1
Chorus x 1
Solo riff 1 x 3
solo riff 2 x 1
Chorus x 1 (Don't play the 3-5-3-5-3-5 etc. Go straight into the outro)
Outro x 1

Have fun. I'm not sure if the first couple of E's in the verse are necessary but it's here just in case.

Cheers

Andy
Comments