Stereophonics - Lying In The Sun Chords & Tabs

 

Lying In The Sun Chords & Tabs

Stereophonics Chords & Tabs

Version: 2 Type: Tab 0 ratings
1 star 2 stars 3 stars 4 stars 5 stars
comments

Lying In The Sun Tab

   
#----------------------------------PLEASE NOTE----------------------------------#
# This file is the author's own work and represents their interpretation of the #
# song. You may only use this file for private study, scholarship, or research. #
#-------------------------------------------------------------------------------#

LYING IN THE SUN
From: Kevin Maier, kevstaar@gmx.net


intro  +  verses + outro

[D x 8              A x 4               ]x2      
e|-------2-----------2---------|--------------------------------|
b|----------3--0--3-----3------|-----------2-----------2--------|
g|----2------------------------|--------------2-----2-----2-----|
D|-0---------------------------|--------2--------4--------------|
A|-----------------------------|-----0--------------------------|
E|-----------------------------|--------------------------------|
[ Tab from: http://www.guitartabs.cc/tabs/s/stereophonics/lying_in_the_sun_tab_ver_2.html ]
 D x 2                                      
e|-------2-----------2---------|
b|----------3--0--3-----3------|
g|----2------------------------|
D|-0---------------------------|
a|-----------------------------|
E|-----------------------------|


bridge

      A         Asus4
e|-----------------------------------|
b|----2-2----2----3----2-2-----------|
g|----2-2----2----2----2-2-----------|
D|----2-2----2----2----2-2-----------|
A|-----------------------------------|
E|-----------------------------------|
    same things as anyone

Chorus
      A     D
e|------------------2----------------|
b|----2-------------3----------------|
g|----2-------------2----------------|
D|----2------------------------------|
A|-----------------------------------|
E|-----------------------------------|

Song goes:
intro 
verse
bridge x 2
chorus
bridge x 1
verse
bridge x 2
chorus
bridge x 1
chorus + gospel singers
bridge x 1
verse + outro
Comments