Stereophonics - Lying In The Sun Chords & Tabs

 

Lying In The Sun Chords & Tabs

Stereophonics Chords & Tabs

Version: 1 Type: Tab 0 ratings
1 star 2 stars 3 stars 4 stars 5 stars
comments

Lying In The Sun Tab

#----------------------------------PLEASE NOTE---------------------------------#
#This file is the author's own work and represents their interpretation of the #
#song. You may only use this file for private study, scholarship, or research. #
#------------------------------------------------------------------------------#

Lying in the Sun
Stereophonics
Just Enough Education to Perform

capo 4th fret
tab written as if 4th fret is played 'open' 0. 6th fret is '2'

Intro:

e:-------2-------------2-----/-------2-------------2-----/-------2-------------2-----/-------2-------------2-----
b:----0----0--------3---3---/----0----0--------3---3--/----0----0--------3---3---/----0----0--------3---3---
g:--2-------------4----------/--2-------------4----------/--2-------------4----------/--2-------------4----------
d:--0------------------------/--0------------------------/---0------------------------/---0------------------------
a:-----------------------------/----------------------------/----------------------------/-----------------------------
e:-----------------------------/----------------------------/----------------------------/-----------------------------

Verse 1:
[ Tab from: http://www.guitartabs.cc/tabs/s/stereophonics/lying_in_the_sun_tab.html ]
e:-------2-------------2-----/-------2-------------2-----/-------2-------------2-----/-------2-------------2-----
b:----0----0--------3---3---/----0----0--------3---3--/----0----0--------3---3---/----0----0--------3---3---
g:--2-------------4----------/--2-------------4----------/--2-------------4----------/--2-------------4----------
d:--0------------------------/--0------------------------/---0------------------------/---0------------------------
a:-----------------------------/----------------------------/----------------------------/-----------------------------
e:-----------------------------/----------------------------/----------------------------/-----------------------------

Wish that I....

e:-------0-------------0-----/-------0-------------0-----/-------0-------------0-----/-------0-------------0-----
b:----0----0--------3---3---/----0----0--------3---3--/----0----0--------3---3---/----0----0--------3---3---
g:--2-------------4----------/--2-------------4----------/--2-------------4----------/--2-------------4----------
d:--0------------------------/--0------------------------/---0------------------------/---0------------------------
a:-----------------------------/----------------------------/----------------------------/-----------------------------
e:-----------------------------/----------------------------/----------------------------/-----------------------------

Wish that I....

e:-------2-------------2-----/-------2-------------2-----/
b:----0----0--------3---3---/----0----0--------3---3--/
g:--2-------------4----------/--2-------------4----------/
d:--0------------------------/--0-------------------------/
a:-----------------------------/----------------------------/
e:-----------------------------/----------------------------/




By Craig McKibbin
(and my t-shirt writes 'I love airplane noise')
Comments