Stereophonics - Looks Like Chaplin Chords & Tabs

 

Looks Like Chaplin Chords & Tabs

Stereophonics Chords & Tabs

Version: 1 Type: Tab 0 ratings
1 star 2 stars 3 stars 4 stars 5 stars
comments

Looks Like Chaplin Tab

   
I had a bit of trouble finding a good tab or simple chords for this one, so heres what i 
out... sounds good to me!!

Looks Like Chaplin - Stereophonics

Intro!

Em

-------------3--0-3-0-0--|
----0---3-0--0----0---0--|
----0---0----------------|
2------------------------|  X3
2------------------------|
-------------------------|

Em
-------------3--0-3-----------------|
----0---3-0--0----0-----------------|
----0---0-----------x-x-x-x-x-x-x-x-|
2-------------------x-x-x-x-x-x-x-x-|
2-------------------x-x-x-x-x-x-x-x-|
--------------------x-x-x-x-x-x-x-x-|


Em (heavy distorted) ending with

MUTED thrashes
-----------------|
-----------------|
-x-x-x-x-x-x-x-x-|
-x-x-x-x-x-x-x-x-|
-x-x-x-x-x-x-x-x-|
-x-x-x-x-x-x-x-x-|


VERSE
[ Tab from: http://www.guitartabs.cc/tabs/s/stereophonics/looks_like_chaplin_tab.html ]
Em
Well i feel the wash____
Close down the street____
Yet Chaplin walks_____
Feet nine fifteen,

       A5                                        Em  (repeat intro riff x1)
And i hear_____ them, I hear____ them, call his name
And i see________ him,  see________  him  turn  away


BRIDGE


D               Bm7 C
They take him in
And clean him up
Bm7 C
    Hah Nah
    Hah Nah Nah Nah___

LINK - Repeat 1st 4 bars from intro

VERSE 2 - Same Chords as Verse 1

Bridge 2

D                  Bm7  C
  Asks to use the phone
D
  Yet he lives alone
  He lives alone
Bm7
Theres no-one,
C  G/B  Am7  G  D
No-one home to phone
Sits a-lone at home
Calls his home his own
His wife is still unknown


Any comments, please email me on tom_lawrenson_2002@hotmail.com
Comments