Stereophonics - Local Boy In The Photograph Chords & Tabs

 

Local Boy In The Photograph Chords & Tabs

Stereophonics Chords & Tabs

Version: 2 Type: Chords 0 ratings
1 star 2 stars 3 stars 4 stars 5 stars
comments

Local Boy In The Photograph Chords

-------------------------------------------------------------------------------
			     Local boy in the photograph - Stereophonics
-------------------------------------------------------------------------------
Tabbed by: rob woodcock
Email: the_ginger_twat@hotmail.com 
Tuning: standard

Intro riff:
[ Tab from: http://www.guitartabs.cc/tabs/s/stereophonics/local_boy_in_the_photograph_crd_ver_2.html ]
e -10-----------10-------------8--------------8------------
B ----7---8---------7----8--------7----8-----------7------8
G ---------------------------------------------------------
D ---------------------------------------------------------
A ---------------------------------------------------------
E ---------------------------------------------------------

e ---------------------------------------------------------
B ---3---3---3---1---0-------------------------------------
G ----------------------2---0------------------------------
D ---------------------------------------------------------
A ---------------------------------------------------------
E ---------------------------------------------------------

verse chords:

G, Bm, C (all the way through)

this song is really easy, and sounds good live.
Comments