Stereophonics - Just Looking Chords & Tabs

 

Just Looking Chords & Tabs

Stereophonics Chords & Tabs

Version: 8 Type: Tab 0 ratings
1 star 2 stars 3 stars 4 stars 5 stars
comments

Just Looking Tab

Stereophonics - Just Looking [intro+verses]
Tabbed by Parv
OmgIWeedMaSelf@cHotmail.Com

Intro/riffs Carried out throughout verses;
E---------3---3---3-----------|
A-----------------------------|
D-----------------------------|
G-4b-2b-------------2h4p2h4---|
B-------5---3---2-------------|
e-----------------------------|
[ Tab from: http://www.guitartabs.cc/tabs/s/stereophonics/just_looking_tab_ver_8.html ]
E-----------------------------|
A---------3---3---3-----------|
D-----------------------------|
G-4b-2b-------------2h4p2h4---|
B-------5---3---2-------------|
e-----------------------------|

E-----------------------------|
A-0------------0--------------|
D-----------------------------|
G-----------------------------|
B---1-0-1-0-1----1-0-1-0-1----|
e-----------------------------|

E-----------------------------|
A-1------------1--------------|
D-----------------------------|
G-----------------------------|
B---1-0-1-0-1----1-0-1-0-1----|
e-----------------------------|
Comments