Stereophonics - Just Looking Chords & Tabs

 

Just Looking Chords & Tabs

Stereophonics Chords & Tabs

Version: 5 Type: Tab 0 ratings
1 star 2 stars 3 stars 4 stars 5 stars
comments

Just Looking Tab

   
#----------------------------------PLEASE NOTE---------------------------------#
#This file is the author's own work and represents their interpretation of the #
#song. You may only use this file for private study, scholarship, or research. #
#------------------------------------------------------------------------------#

Artist; Stereophonics.
Song; Just Looking.
Album; Performances And Cocktails.
Author; John Garry.

Verse Riff 1:
                               G
E------------------------------------------------|
B---3-----1------------------3-----1-------------|
G-------0---0-2-0---------------0---0-2-0--------|
D------------------------------------------------|
A------------------------------------------------|
E-3---3---3----------------3---3---3-------------|

Verse Riff 2:
                           Cadd9
E------------------------------------------------|
B---3-----1------------------3-----1-------------|
G-------0---0-2-0---------------0---0-2-0--------|
D------------------------------------------------|
A-3---3---3---------------3---3---3--------------|
E------------------------------------------------|
[ Tab from: http://www.guitartabs.cc/tabs/s/stereophonics/just_looking_tab_ver_5.html ]
Bridge Riff 1:
                          Am7
E------------------------------------------------|
B---1-0-1-0-1---------------1-0-1-0--------------|
G------------------------------------------------|
D------------------------------------------------|
A-0------------------------0---------------------|
E -----------------------------------------------|

Bridge Riff 2:
                             F 
E------------------------------------------------|
B---1-0-1-0-1--------------1-0-1-0-1-------------|
G------------------------------------------------|
D------------------------------------------------|
A------------------------------------------------|
E-1------------------------1---------------------|



G 320033
Cadd9 032033
Am7 002103
F 132211
C 032010
D*054030
Em 7022033


Intro:
Verse Riff 1
Verse Riff 2




Chorus:

Solo / Break:

C        D*
C        D*
C        D*Em7   G

Chorus:

Chorus:

Verse 4:

(This is the same as the first verse).

Bridge 4:

(This is the same as the first bridge).

Outro chorus:


If you have any suggestions or queries you can contact me at jonnig11@hotmail.com.
Comments