Stereophonics - Just Looking Chords & Tabs

 

Just Looking Chords & Tabs

Stereophonics Chords & Tabs

Version: 3 Type: Tab 0 ratings
1 star 2 stars 3 stars 4 stars 5 stars
comments

Just Looking Tab

Artist : Stereophonics
Song : Just looking
Tabbed by : Allan Forbes

I think this is my third tab, I only did this cos all the ones 
recently are a bit dodgey.  You might find this easier and more 
sensible to play. This is based around all current tabs on this 
site with a few additions that sound right. Here you go ----->
[ Tab from: http://www.guitartabs.cc/tabs/s/stereophonics/just_looking_tab_ver_3.html ]
Rythms not perfect cos you need to practice slowly then build up.
This is only the verse cos u guys got the chorus perfect

Based around a G chord

e-------------------|
B----3-1-0----------| 
G-----0-0-0-0-0h2p0-|  
D-------------------|   
A-------------------| 
E-3-----------------| x2

Based around a Cadd9 chord

e-------------------|
B----3-1-0----------| 
G-----0-0-0-0-0h2p0-|  
D-------------------|   
A-3-----------------| 
E-------------------| x2
Comments