Stereophonics - Just Looking (riff) Chords & Tabs

 

Just Looking (riff) Chords & Tabs

Stereophonics Chords & Tabs

Version: 1 Type: Chords 0 ratings
1 star 2 stars 3 stars 4 stars 5 stars
comments

Just Looking (riff) Chords

#----------------------------------PLEASE NOTE---------------------------------#
#This file is the author's own work and represents their interpretation of the #
#song. You may only use this file for private study, scholarship, or research. #
#------------------------------------------------------------------------------#

Stereophonics
Just looking

this is only the riff


Start
[ Tab from: http://www.guitartabs.cc/tabs/s/stereophonics/just_looking_riff_crd.html ]
e---------
b---3b4---
g---2b3-2-
d---------
a---------
e---------

repetitive during verse


e----------------------
b---3---1---0-----0----
g-------------0h2---0--  x2
d----------------------
a----------------------
e-3---3---3------------


e----------------------
b---3---1---0-----0----
g-------------0h2---0--  x2
d----------------------
a-3---3---3------------
e----------------------
Comments