Stereophonics - Hurry Up And Wait Chords & Tabs

 

Hurry Up And Wait Chords & Tabs

Stereophonics Chords & Tabs

Version: 1 Type: Chords 1 rating
1 star 2 stars 3 stars 4 stars 5 stars
comments

Hurry Up And Wait Chords

#----------------------------------PLEASE NOTE---------------------------------#
#This file is the author's own work and represents their interpretation of the #
#song. You may only use this file for private study, scholarship, or research. #
#------------------------------------------------------------------------------##

stereophonics 

> hurry up and wait

[ Tab from: http://www.guitartabs.cc/tabs/s/stereophonics/hurry_up_and_wait_crd.html ]
E = 0 2 2 1 0 0 
Dsus2 = x x 0 2 3 0
A = x 0 2 2 2 0
A5 = x 0 2 2 x x
D5 = x 5 7 7 x x
Verse
e-----9--------------9-------------
b-----10--10-10------10--10-10-----
g-----9----9--9------9----9--9----- repeat as required
d--11-----11-11--11------11-11--11-
a--0-------------0--------------0--
e----------------------------------
then
e---7-7-7-7--7-----7---7--7---------
b---9-9-9-9--10----10--10-10--------
g---9-9-9-9--9-----9---9--9---------
d---0-------------------------------
a-----------------------------------
e------------------------------------
 
Chorus 
E---------------Dsus2
So hurry up and wait 
-------------------------A ( or use opening chord from intro )
but what's worth waiting for
 
as the song progresses it becomes more electric play A5 and D5 on a distorted 
electric guitar
Comments