Stereophonics - High As The Ceiling Chords & Tabs

 

High As The Ceiling Chords & Tabs

Stereophonics Chords & Tabs

Version: 3 Type: Tab 0 ratings
1 star 2 stars 3 stars 4 stars 5 stars
comments

High As The Ceiling Tab

   
High As The Ceiling Tab

No one's tabbed this song yet so I thought I'd have a
go. I'm pretty sure its correct, well it sounds good
enough anyway! There are two guitars in the song, I've only
done tabbed one but the other guitar bassically does
the same as the first.
 
Standard Tuning EADGBe


Intro

e----------------------------
B----------------------------
G----------------------------  x4
D----------------------------
A----------------------------
E-4-4-5--4-4-5--4-4-5--4-4-5-


Verse

e-----------------------------
B-----------------------------
G-----------------------------  x2
D-----------------------------
A-5-4-------------------------
E-----5-4-3---0-3-4-5-3-5-3-0-

e-----------------------------------
B-----------------------------------
G-----------------------------------  x2
D-----------------------------------
A-----------5-3-0-------------5-3-0-
E-0-3-4-5-5---------0-3-4-5-5-------


Bridge

e------------------------------------------------------
B-3-1-------------------1-0----------------------------
G-----2-1-0---------0-2-----2--------------------------
D-----------2-1-0--------------------------------------
A-----------------3------------0---------3-----------3-
E--------------------------------3-5-5-3-----3-5-5-3---

e---------------------------------------
B---------------------------------------
G---------------------------------------
D---------------------------------------
A-----------------3-------------------3-
E-5-0-3-5-3-5-5-3-----5-0-3-5-3-5-5-3---
Guitar Solo
[ Tab from: http://www.guitartabs.cc/tabs/s/stereophonics/high_as_the_ceiling_tab_ver_3.html ]
e-----------------------------------2-3-4-5-12-10-8------
B-3-1---------------------------1-3-----------------10-8-
G-----2-1-0---------------0-1-2--------------------------
D-----------2-1-0---0-1-2--------------------------------
A-----------------3--------------------------------------
E--------------------------------------------------------

e------------------------------------------------------
B---------------10-8---------------10-8----------------
G-9-7-5-7-5-7-5------9-7-5-7-5-7b9-------9-7-5-7-5-7-5-
D------------------------------------------------------
A------------------------------------------------------
E------------------------------------------------------

e-------4-5-8-10b12v~~~~~~~~~~~~-
B---1-3--------------------------
G-2------------------------------
D--------------------------------
A--------------------------------
E--------------------------------


This part is played after the 3rd Bridge

e-12-8-10-11b12~~~--12-8-10-11-------12-8-10-11b12~~-
B------------------------------10b11~----------------
G----------------------------------------------------
D----------------------------------------------------
A----------------------------------------------------
E----------------------------------------------------

e-12-8-10-11-16b17~~~~~~---17-15----------------
B--------------------------------17-16-15v~~~~~-
G-----------------------------------------------
D-----------------------------------------------
A-----------------------------------------------
E-----------------------------------------------


Outro: (this is the part where the verse is played
with the clapping) Just play the intro for this part


Finally end on:

e-------------
B-------------
G-------------
D-------------
A-------------
E-0h3-4-5-3p0-


Its a great song - Enjoy!!
Comments