Stereophonics - Help Me Chords & Tabs

 

Help Me Chords & Tabs

Stereophonics Chords & Tabs

Version: 3 Type: Tab 0 ratings
1 star 2 stars 3 stars 4 stars 5 stars
comments

Help Me Tab

Artist:The Stereophonics
Song:Help Me
Album:You Gotta Go There To Come Back


sorry,theres no solo
Barney.If anyone can tab it please do

INTRO: Listen for strummin pattern
e|--------------------5-5-5-5-5-5-5----10-10-10-10-10-10-10--
b|--------------------5-5-5-5-5-5-5----10-10-10-10-10-10-10--
g|--------------------6-6-6-6-6-6-6----11-11-11-11-11-11-11--
d|--------------------7-7-7-7-7-7-7----12-12-12-12-12-12-12--
a|--------------------7-7-7-7-7-7-7----12-12-12-12-12-12-12--
E|-0-3-5-8-5-3-0-3-5--5-5-5-5-5-5-5----10-10-10-10-10-10-10--

Verse

e|--------------------5-5-5-5-5-5-5-5-5-5--10-10-10-10-10-10-10--
b|--------------------5-5-5-5-5-5-5-5-5-5--10-10-10-10-10-10-10--
g|--------------------6-6-6-6-6-6-6-6-6-6--11-11-11-11-11-11-11--
d|--------------------7-7-7-7-7-7-7-7-7-7--12-12-12-12-12-12-12--
a|--------------------7-7-7-7-7-7-7-7-7-7--12-12-12-12-12-12-12--
E|-0-3-5-8-5-3-0-3-5--5-5-5-5-5-5-5-5-5-5--10-10-10-10-10-10-10--

Chorus

e|-5-5-5-5-5---10-10-10-10-10--3-3-3-3---4-4-4-4-4-4----------------
b|-5-5-5-5-5---10-10-10-10-10--3-3-3-3---4-4-4-4-4-4----------------
g|-6-6-6-6-6---11-11-11-11-11--4-4-4-4---5-5-5-5-5-5----------------
d|-7-7-7-7-7---12-12-12-12-12--5-5-5-5---6-6-6-6-6-6----------------
a|-7-7-7-7-7---12-12-12-12-12--5-5-5-5---6-6-6-6-6-6----------------
E|-5-5-5-5-5---10-10-10-10-10--3-3-3-3---4-4-4-4-4-4----------------

e|5-5-5-5-5--10-10-10-10-10--3-3-3-3--4-4-4-4-4-4------------------
b|5-5-5-5-5--10-10-10-10-10--3-3-3-3--4-4-4-4-4-4------------------
g|6-6-6-6-6--11-11-11-11-11--4-4-4-4--5-5-5-5-5-5------------------
d|7-7-7-7-7--12-12-12-12-12--5-5-5-5--6-6-6-6-6-6------------------
a|7-7-7-7-7--12-12-12-12-12--5-5-5-5--6-6-6-6-6-6------------------
E|5-5-5-5-5--10-10-10-10-10--3-3-3-3--4-4-4-4-4-4-0-3-5-8-5-3-0-3-5


     Bridge 1(this carrys on to 2nd chorus)
    (this is played over the main riff)
e|-----------------------------------------------------
b|-10-8-7-6-5------------------------------------------
g|-----------------------------------------------------
d|-------------12-10-7--7\0--14p12-14------------------
a|-----------------------------------------------------      
E|------------------------------------0-3-5-8-5-3-0-3-5     

VERSE:

e|--------------------------------- |--------
b|--------------------------------- |--------
g|-14-14-14-14-14-14-14------------ |--------
d|-----------------------12-12-12-12|12-12-12         
a|--------------------------------- |--------
E|--------------------------------- |--------

Bridge

e|--------------------------------- |-----------
b|--------------------------------- |-----------
g|-14-14-14-14-14-14-14------------ |---------14
d|-----------------------12-12-12-12|12-12-12---          
a|--------------------------------- |-----------
E|--------------------------------- |-----------
[ Tab from: http://www.guitartabs.cc/tabs/s/stereophonics/help_me_tab_ver_3.html ]
e|------------------------------------------------------------------
b|------------------------------------------------------------------
g|------------------------------------------------------------------
d|------------------------------------------------------------------
a|-0-3-5-8-5-3-0-3-5---------0-3-5-8-5-3-0-3-5----------------------
E|------------------------------------------------------------------

 Pre-Chorus

e|-----12-10--------------------------------------------------------
b|------------12-10-------------------------------------------------
g|--------------------12-9------------------------------------------
d|--------------------------12-10-----------------------------------
a|---------------------------------12-10-12-15-12-15-12-0-----------
E|------------------------------------------------------------------




e|-5-5-5-5-5---10-10-10-10-10--3-3-3-3---4-4-4-4-4-4--3-4-5-8--7-6-5
b|-5-5-5-5-5---10-10-10-10-10--3-3-3-3---4-4-4-4-4-4--3-4-5-8--7-6-5
g|-6-6-6-6-6---11-11-11-11-11--4-4-4-4---5-5-5-5-5-5--4-5-6-9--8-7-6
d|-7-7-7-7-7---12-12-12-12-12--5-5-5-5---6-6-6-6-6-6--5-6-7-10-9-8-7
a|-7-7-7-7-7---12-12-12-12-12--5-5-5-5---6-6-6-6-6-6--5-6-7-10-9-8-7
E|-5-5-5-5-5---10-10-10-10-10--3-3-3-3---4-4-4-4-4-4--3-4-5-8--7-6-5

e|5-5-5-5-5--10-10-10-10-10--3-3-3-3--4-4-4-4-4-4------------------
b|5-5-5-5-5--10-10-10-10-10--3-3-3-3--4-4-4-4-4-4------------------
g|6-6-6-6-6--11-11-11-11-11--4-4-4-4--5-5-5-5-5-5------------------
d|7-7-7-7-7--12-12-12-12-12--5-5-5-5--6-6-6-6-6-6------------------
a|7-7-7-7-7--12-12-12-12-12--5-5-5-5--6-6-6-6-6-6------------------
E|5-5-5-5-5--10-10-10-10-10--3-3-3-3--4-4-4-4-4-4-0-3-5-8-5-3-0-3-5

e|------------------------------------------------------------------
b|------------------------------------------------------------------
g|-14---------10-8-10--10/11----------------------------------------
d|--------12\-10-8-10--10/11-12-12-12-12\0--------------------------
a|------------------------------------------------------------------
E|--------------------------------------------0-3-5-8-5-3-0-3-5-----

E----------------------------20-19-18-17-17-------20-19-18-17-17--
B--12b------------------------------------------------------------
G-----------------------------------------------------------------
D-----------------------------------------------------------------
A-----------------------------------------------------------------
E-----------------------------------------------------------------

E---------------------------------------------------------
B-13-8/10----15-13-11-8-10---15-13-11-8-10--14fb15--14hb15
G---------------------------------------------------------
D---------------------------------------------------------
A---------------------------------------------------------
E---------------------------------------------------------

E---------------------------------------------------------------
B--15-13-11-8-10---15-13-11-8-10-15-13-10-8--10-14fb15--14hb15--
G---------------------------------------------------------------
D---------------------------------------------------------------
A---------------------------------------------------------------
E---------------------------------------------------------------
Comments