Stereophonics - Have A Nice Day Chords & Tabs

 

Have A Nice Day Chords & Tabs

Stereophonics Chords & Tabs

Version: 2 Type: Bass Tab 0 ratings
1 star 2 stars 3 stars 4 stars 5 stars
comments

Have A Nice Day Bass Tab

   
have a nice day

stereophonics

intro/verse/chorus

g-----------------------------
d-----------------------------
a---------------77777777777777
e-77777777777777--------------

Verse is the same except its played like this

g-----------------------
d-----------------------
a------------7-777-777-7
e-7-777-777-7-----------

Just before chorus

g-------------------
d-------------------
a-777---------------
e-----55555554444444
[ Tab from: http://www.guitartabs.cc/tabs/s/stereophonics/have_a_nice_day_btab_ver_2.html ]
chorus exactley the same as intro

Interlude
( this is when the solo is being played )

g------------------
d------------------
a----------22222222
e-222222222--------

Play that twice then ring of on

e-7 (b note )

then come in as the verse bit just before he starts
singing play this, you can hear the slide on the cd

g---------------------------------
d---------------------------------
a------------7-777-777-7-7/9\7/9\7
e-7-777-777-7---------------------

Comments