Stereophonics - Handbags And Gladrags Chords & Tabs

 

Handbags And Gladrags Chords & Tabs

Stereophonics Chords & Tabs

Version: 1 Type: Tab 0 ratings
1 star 2 stars 3 stars 4 stars 5 stars
comments

Handbags And Gladrags Tab

   
#----------------------------------PLEASE NOTE---------------------------------#
#This file is the author's own work and represents their interpretation of the #
#song. You may only use this file for private study, scholarship, or research. #
#------------------------------------------------------------------------------#
Handbags and Gladrags

hi people, i looked at all the other versions and they are not quite right, this is the best way to play this song


Capo 1st fret
[ Tab from: http://www.guitartabs.cc/tabs/s/stereophonics/handbags_and_gladrags_tab.html ]
Intro
Part 1
e |----------------------------------------------------------------------------------------------------------------------
B  |----------------------------------------------------------------------------------------------------------------------
G  |--------2---------------2----------------2--------------2-----------------------------------------------------------------
D  |-----2----0--------2------0---------0------0-------0-----0--------------------------------------------------------------------
A  |---0------------------------------------------------------------------------------------------------------------------
E  |---------------3------------------2---------------0----------------------------------------------------------------------
                                                                                                 X2
Part 2
e |---------------------------------------------------------------------------------------------------------------------
B |---------------------------------------------------------------------------------------------------------------------
G |------------2----------------2-------------------------------------------------------------------------------------------
D |--------0------0-------2--------------------------------------------------------------------------------------------------
A |--------------------------------------------------------------------------------------------------------------------
E |----2----------------0--------------------------------------------------------------------------------------------------
                                   X2

Chords

B5 X022XX
B5/A 3X22XX
E/G 2X03XX
E 022100
Fm 133111
A X02220
B 224442
D XX0232
E7sus4 02223X (not sure about that name)


Comments correction email me
mr_showtime69@hotmail.com

if ne1 is a big 'phonics fan (like me!) feel free to email me.
also, does ne1 know how 2 play roll up and shine or watch them fly sundays cos i really wanna learn them.
tnx
Comments