Stereophonics - Half The Lies You Tell Ain T True Chords & Tabs

 

Half The Lies You Tell Ain T True Chords & Tabs

Stereophonics Chords & Tabs

Version: 1 Type: Chords 0 ratings
1 star 2 stars 3 stars 4 stars 5 stars
comments

Half The Lies You Tell Ain T True Chords

#----------------------------------PLEASE NOTE---------------------------------#
#This file is the author's own work and represents their interpretation of the #
#song. You may only use this file for private study, scholarship, or research. #
#------------------------------------------------------------------------------##

stereophonics
[ Tab from: http://www.guitartabs.cc/tabs/s/stereophonics/half_the_lies_you_tell_ain_t_true_crd.html ]
> half the lies you tell ain't true
 
B5 = 7 9 9 x x x
G5 = 3 x 0 0 3 x
Gsus2 = 3 x 0 2 3 x
E5 = x 7 9 9 x x
G5/F# = 2 x 0 0 3 3
B5* = x 2 4 4 x x
 
B5--------------------
You could lick or chew
------------------G5---------Gsus2
Tongue in style tonight________________
B5-----------------------
Champagne drag queen suit
----------------G5-----------
Pinstripe outa line_________
-----G5/F#----------
It's time to try how
 
Chorus
--But when you rely on a lie thats true-------------
g---------------------------------------------------
d------------------------0-0------------------------
a--0-0-0-0-0-0-0-4-4-0-0-----4-4-0------------------
e---------------------------------------------------
no-one believes in the things you do
cause half of the lies you tell ain't true
B5*-----------D5--
I'm gonna find out
B5*-----------D5---------
I'm gonna find a piece of...
 
You (play riff below or E5)
g----9-9-9-9-9-9-9-11-11-11-11-13-13-13-13-13\-9-9-9-9-9-9-9-11-11-11-11-13-13-13-13-13-
 
e------------------------------------------------------
b----9\5------------9/10\9---9\5-----------------------
g-----------4/9----------------------4/9---9--9--------
d----6\2-------------6/7\6---6\2-----------------------
a-----------2/7----------------------2/7---7--7--------
e------------------------------------------------------
Comments