Stereophonics - Doorman Chords & Tabs

 

Doorman Chords & Tabs

Stereophonics Chords & Tabs

Version: 2 Type: Tab 0 ratings
1 star 2 stars 3 stars 4 stars 5 stars
comments

Doorman Tab

   
artist: stereophonics
song: doorman
album: language, sex, violence, other? (2005)
tuning: standard

a very cool song from a very cool album, solo is pretty tricky and im not sure i tabbed 
right but the rest is good. enjoy!

b=bend
h=hammer-on
\=slide
bh=bend high


    verse (doorman, you've got an attitude...)
e|-----------------------------------------------------------------------|
b|--8-8-8-8-8-8-8-8-8-8-8-8-8-8-8-8--------------------------------------|
g|--7-7-7-7-7-7-7-7-7-7-7-7-7-7-7-7--------------------------------------|
d|--x-x-x-x-x-x-x-x-x-x-x-x-x-x-x-x--7-7-7-7-7-7-7-7-7-7-7-7-7-5-5-------|
a|--7-7-7-7-7-7-7-7-7-7-7-7-7-7-7-7--7-7-7-7-7-7-7-7-7-7-7-7-7-5-5-------|
e|-----------------------------------5-5-5-5-5-5-5-5-5-5-5-5-5-3-3-------|

repeat for the verses

    bridge
e|-----------------------------------------------------------------------|
b|-----------------------------------------------------------------------|
g|-----------------------------------------------------------------------|
d|-----------------------------------------------------------------------|
a|-2-2-5-5-2-2-5-5-2-2-5-5-2-2-5-5---------------------------------------|
e|-0-0-3-3-0-0-3-3-0-0-3-3-0-0-3-3---------------------------------------|

    chorus
e|-----------------------------------------------------------------------|
b|-----------------------------------------------------------------------|
g|-----------------------------------------------------------------------|
d|-------------12-----------------------7-7-7-7-7----5-------------------|
a|-17b-17b--14----14--------------------7-7-7-7-7----5-------------------|
e|-------------------15-12-(repeat x4)--5-5-5-5-5----3--(repeat x4)------|

    solo
e|-----------------------------------------------------------------------|
b|--17-15h-12h-15h-17-15h-12h-15h--(repeat x 4)-17b-(repeat-x11)---------|
g|-----------------------------------------------------------------------|
d|-----------------------------------------------------------------------|
a|-----------------------------------------------------------------------|
e|-----------------------------------------------------------------------|

e|-----------------------------------------------------------------------|
b|-21b-21b-21b-21b-21b-19-17-15b-17-15-\-12b-12-10h-8h-10h-8h------------|
g|-----------------------------------------------------------------------|
d|-----------------------------------------------------------------------|
a|-----------------------------------------------------------------------|
e|-----------------------------------------------------------------------|

e|------------------------------------------------------------------------|
b|-12b-12-10h-8h--12b-12-10h-8h-(repeat)-12bh-10h-8h-10h-8h--4-5h-5h------|(x8)
g|------------------------------------------------------------------------|
d|------------------------------------------------------------------------|
a|------------------------------------------------------------------------|
e|------------------------------------------------------------------------|
[ Tab from: http://www.guitartabs.cc/tabs/s/stereophonics/doorman_tab_ver_2.html ]
e|-----------------------------------------------------------------------|
b|-17b-17b-17b-17b-17b-17b-17b-17b-17b-15-12-8---------------------------|
g|-----------------------------------------------------------------------|
d|-----------------------------------------------------------------------|
a|-----------------------------------------------------------------------|
e|-----------------------------------------------------------------------|

chorus then...

     solo 2
e|----------------3------------------------------------------------------|
b|-0-3-5--0-3h-5h----0-3-5--0-3h-5h-3h---(repeat)------------------------|
g|-----------------------------------------------------------------------|
d|-----------------------------------------------------------------------|
a|-----------------------------------------------------------------------|
e|-----------------------------------------------------------------------|

e|------------------------------------------------------------------------|
b|------------------------------------------------------------------------|
g|------------------------------------------------------2-----------------|
d|-0-2h-2h--0-2h-2h--0-2h-2h--0-2h-2h--0-2h-2h--0-2h-2h---4-2-0-----------|(repeat)
a|------------------------------------------------------------------------|
e|------------------------------------------------------------------------|

e|------------------------------------------------------------------------|
b|------------------------------------------------------------------------|
g|------------------------------------------------------------------------|
d|-12-14h-14h--12-14h-14h--12-14h-14h--12-14h-14h--12-14h-14h--12-14h-14--|h
a|------------------------------------------------------------------------|
e|------------------------------------------------------------------------|

e|-----------------------------------------------------------------------|
b|-----------------------------------------------------------------------|
g|-14-----------------------------------------------------------12-12-12-|
d|----16-14-12---12-14h-14h--12-14h-14h--12-14h-14h--12-14h-14h----------|
a|-----------------------------------------------------------------------|
e|-----------------------------------------------------------------------|

e|------------------------------------------------------------------------|
b|-12-12---17-17-17-(repeat really fast x6)-17-15-8---19b-19b-19b-19b-----|
g|------------------------------------------------------------------------|
d|------------------------------------------------------------------------|
a|------------------------------------------------------------------------|
e|------------------------------------------------------------------------|

e|-----------------20-20-17-20-17-20-------------------------------------|
b|-19-17-15-12-15--------------------------------------------------------|
g|-----------------------------------------------------------------------|
d|-----------------------------------------------------------------------|
a|-----------------------------------------------------------------------|
e|-----------------------------------------------------------------------|

-------
order: |
verse  |
bridge |     well, hope u enjoy it, its a great song, really cool
verse  |
bridge |
chorus |
verse  |
bridge |
chorus |
solo   |
bridge |
chorus |
solo 2 |
-------
Comments