Stereophonics - Devil Chords & Tabs

 

Devil Chords & Tabs

Stereophonics Chords & Tabs

Version: 1 Type: Tab 0 ratings
1 star 2 stars 3 stars 4 stars 5 stars
comments

Devil Tab

   
##################################################################################
# This file is the author's own work and represents their interpretation of the  #
# song. You may only use this file for private study, scholarship, or research.  #
##################################################################################

Submitted by:   THE LEGEND! 
Song Title:  DEVIL
Artist:  STEREOPHONIS

Chords used:

Em022000
Bmx24432
Bm/Ax04432
Ax02220
Asus4x02230


riff 1riff 2
e-------e-------|
B-------B-------|
G-----9-G-----7-|
D-----9-D-----9-|
A-7-7---A-9-9---|
E-------E-------|


Intro

Verse 1

Verse 2

Chorus

Verse 3

Chorus


solo

 2:49
e------------------------------------|
B--7-10-7-10~12-12--7-10-7-10~12-12--|
G------------------------------------|
D------------------------------------|
A------------------------------------|
E------------------------------------|

Verse 4

Em   Bm    Em

Chorus

Outro solo
[ Tab from: http://www.guitartabs.cc/tabs/s/stereophonics/devil_tab.html ]
 4:07
e---7---7---7---7---9---9---9---9---10---10---10---10---10---10---10----------|
B-7---7---7---7---7---7---7---7---7----7----7----7----7----7----7----7--------|
G-----------------------------------------------------------------------------|
D-----------------------------------------------------------------------------|
A-----------------------------------------------------------------------------|
E-----------------------------------------------------------------------------|


e---12---12---12---12---12---12-----------------------------------------------|
B-7----7----7----7----7----7----7----7----------------------------------------|
G-----------------------------------------------------------------------------|
D-----------------------------------------------------------------------------|
A-----------------------------------------------------------------------------|
E-----------------------------------------------------------------------------|


e----17-----17------17------------17-----17------17---------------------------|
B-19----19------19-----19~17---19----19------19-----19~17---  ad lib  --------|
G-----------------------------------------------------------------------------|
D-----------------------------------------------------------------------------|
A-----------------------------------------------------------------------------|
E-----------------------------------------------------------------------------|
Comments