Stereophonics - Dakota Chords & Tabs

 

Dakota Chords & Tabs

Stereophonics Chords & Tabs

Version: 1 Type: Tab 0 ratings
1 star 2 stars 3 stars 4 stars 5 stars
comments

Dakota Tab

This is the amazing new song by Stereophonics on their amazing new album(it rocks!!)...EnJoy!;)
any probs or questions you know where to e-mail me!
----------------------------------------------------------------------------
STEREOPHONICS-Dakota
ALBUM:Language.Sex.Violence.Other
Tabbed by Tom Woo(strato32) Help from:Dewi Roberts

Standard Tuning

Intro (Just plays one note.The effect used plays another 15 notes.)
|-----------------------------------------------------------------|
|-----------------------------------------------------------------|
|-----------------------------------------------------------------|
|-9---------------6---------------2---------------9---------------|
|-----------------------------------------------------------------|
|-----------------------------------------------------------------|

This is then played at (0:12)

|----12--------11-------7---------7---------7------------------|
|-12----12--12------5--------5---------5-----------------------|
|--------------------------------------------------------------|
|--------------------------------------------------------------|
|--------------------------------------------------------------|
|--------------------------------------------------------------|
(Th first part of verse 1 is also played behind this)

Verse 1
|-7-4-7-4-7-4-7-4-7-4-7-4-7-4-7-4-9--9--9--9--9--9--9--9--9-----------------7-4-7-4-7-4-7-4-7-4-7-4-7-4-7-4--|
|------------------------------------------------------------------------------------------------------------|
|------------------------------------------------------------------------------------------------------------|
|------------------------------------------------------------------------------------------------------------|
|------------------------------------------------------------------------------------------------------------|
|------------------------------------------------------------------------------------------------------------|

|-7-4-7-4-7-4-7-4-7-4-7-4-7-4-7-4-9--9--9--9--9--9--9--9--9-0-0-0-0-0-0-0-0-0-0-0-0-0-0-0-0-0-0-0-0-0-0-0-0--|
|----------------------------------------------------------------------------------------------------------x-|
|----------------------------------------------------------------------------------------------------------x-|
|----------------------------------------------------------------------------------------------------------x-|
|----------------------------------------------------------------------------------------------------------x-|
|------------------------------------------------------------------------------------------------------------|

Chorus
|-----------------------------------------------------------------|
|-----------------------------------------------------------------|
|--6-6-6-6-6-6-6-6--------1-1-1-1-1-1-1-1-------------------------|
|--7-7-7-7-7-7-7-7--------2-2-2-2-2-2-2-2-------------------------|
|--7-7-7-7-7-7-7-7--------2-2-2-2-2-2-2-2-------------------------|
|--5-5-5-5-5-5-5-5--------0-0-0-0-0-0-0-0-------------------------|
                   x4                     x4
This is played over the chords
|-12-11------12-11-----4-(5)-(4)-(5)-(4)-(5)-(4)-(5)-(4)-(5)-(4)-5-4-(5)-(4)-(5)-(4)-(5)-(4)-(5)-(4)-(5)-(4)-(5)-|
|-------12-9-------12-9------------------------------------------------------------------------------------------|
|----------------------------------------------------------------------------------------------------------------|
|----------------------------------------------------------------------------------------------------------------|
|----------------------------------------------------------------------------------------------------------------|
|----------------------------------------------------------------------------------------------------------------|

(Bend the 4\'s to sound as 5\'s and then bend back to sound 4).Play the chorus 2 times.
The second time, play this;
|-----------------------------------------------------------------|
|-----------------------------------------------------------------|
|--6-6-6-6-6-6-6-6--------1-1-1-1-1-1-1-1-------------------------|
|--7-7-7-7-7-7-7-7--------2-2-2-2-2-2-2-2-------------------------|
|--7-7-7-7-7-7-7-7--------2-2-2-2-2-2-2-2-------------------------|
|--5-5-5-5-5-5-5-5--------0-0-0-0-0-0-0-0-------------------------|
                   x4                     x4
This is played over the chords
|-12-11------12-11-----4-(5)-(4)-(5)-(4)-(5)-(4)-(5)-(4)-(5)-(4)-5-4-(5)-(4)-(5)-(4)-(5)-(4)-(5)-(4)-------------|
|-------12-9-------12-9------------------------------------------------------------------------------------------|
|-------------------------------------------------------------------------------------------------------slide----|
|-------------------------------------------------------------------------------------------------------plec up--|
|----------------------------------------------------------------------------------------------------------------|
|----------------------------------------------------------------------------------------------------------------|

Verse 2
|-7-4-7-4-7-4-7-4-7-4-7-4-7-4-7-4-9--9--9--9--9--9--9--9--9-----------------7-4-7-4-7-4-7-4-7-4-7-4-7-4-7-4--|
|------------------------------------------------------------------------------------------------------------|
|------------------------------------------------------------------------------------------------------------|
|------------------------------------------------------------------------------------------------------------|
|------------------------------------------------------------------------------------------------------------|
|------------------------------------------------------------------------------------------------------------|

|-7-4-7-4-7-4-7-4-7-4-7-4-7-4-7-4-9--9--9--9--9--9--9--9--9-0-0-0-0-0-0-0-0-0-0-0-0-0-0-0-0-0-0-0-0-0-0-0-0--|
|----------------------------------------------------------------------------------------------------------x-|
|----------------------------------------------------------------------------------------------------------x-|
|----------------------------------------------------------------------------------------------------------x-|
|----------------------------------------------------------------------------------------------------------x-|
|------------------------------------------------------------------------------------------------------------|

Over this repeat this section two times:
|----12--------11-------7---------7---------7------------------|
|-12------12----------5--------5---------5---------------------|
|--------------------------------------------------------------|
|--------------------------------------------------------------|
|--------------------------------------------------------------|
|--------------------------------------------------------------|

Chorus 2
|-----------------------------------------------------------------|
|-----------------------------------------------------------------|
|--6-6-6-6-6-6-6-6--------1-1-1-1-1-1-1-1-------------------------|
|--7-7-7-7-7-7-7-7--------2-2-2-2-2-2-2-2-------------------------|
|--7-7-7-7-7-7-7-7--------2-2-2-2-2-2-2-2-------------------------|
|--5-5-5-5-5-5-5-5--------0-0-0-0-0-0-0-0-------------------------|
                   x4                     x4
This is played over the chords
|-12-11------12-11-----4-(5)-(4)-(5)-(4)-(5)-(4)-(5)-(4)-(5)-(4)-5-4-(5)-(4)-(5)-(4)-(5)-(4)-(5)-(4)-(5)-(4)-(5)-|
|-------12-9-------12-9------------------------------------------------------------------------------------------|
|----------------------------------------------------------------------------------------------------------------|
|----------------------------------------------------------------------------------------------------------------|
|----------------------------------------------------------------------------------------------------------------|
|----------------------------------------------------------------------------------------------------------------|

[ Tab from: http://www.guitartabs.cc/tabs/s/stereophonics/dakota_tab.html ]
|-----------------------------------------------------------------|
|-----------------------------------------------------------------|
|--6-6-6-6-6-6-6-6--------1-1-1-1-1-1-1-1-------------------------|
|--7-7-7-7-7-7-7-7--------2-2-2-2-2-2-2-2-------------------------|
|--7-7-7-7-7-7-7-7--------2-2-2-2-2-2-2-2-------------------------|
|--5-5-5-5-5-5-5-5--------0-0-0-0-0-0-0-0-------------------------|
                   x4                     x4
This is played over the chords
|-12-11------12-11-----4-(5)-(4)-(5)-(4)-(5)-(4)-(5)-(4)-(5)-(4)-5-4-(5)-(4)-(5)-(4)-(5)-(4)-(5)-(4)-------------|
|-------12-9-------12-9------------------------------------------------------------------------------------------|
|-------------------------------------------------------------------------------------------------------slide----|
|-------------------------------------------------------------------------------------------------------plec up--|
|----------------------------------------------------------------------------------------------------------------|
|----------------------------------------------------------------------------------------------------------------|

Bridge
|-------------------------------------------------------------------------------------------------|
|-------------------------------------------------------------------------------------------------|
|-1-1-1-1-1-1-1-1-1-1-1-1-------------------------------------------------------------------------|
|-2-2-2-2-2-2-2-2-2-2-2-2-6-6-6-6-6-6-6-6-6-6-6-6-7-7-7-7-7-7-7-7-7-7-7-7-7-7-7-7-7-7-7-7-7-7-7-7-|
|-2-2-2-2-2-2-2-2-2-2-2-2-6-6-6-6-6-6-6-6-6-6-6-6-7-7-7-7-7-7-7-7-7-7-7-7-7-7-7-7-7-7-7-7-7-7-7-7-|
|-0-0-0-0-0-0-0-0-0-0-0-0-4-4-4-4-4-4-4-4-4-4-4-4-5-5-5-5-5-5-5-5-5-5-5-5-5-5-5-5-5-5-5-5-5-5-5-5-|

Also this is played over the A chord 4 times.

|----------------------|
|------------5----7----|
|--4----6--------------|
|----------------------|
|----------------------|
|----------------------|
This whole Bridge is played 2 times.

Verse 3
|-7-4-7-4-7-4-7-4-7-4-7-4-7-4-7-4-9--9--9--9--9--9--9--9--9-----------------7-4-7-4-7-4-7-4-7-4-7-4-7-4-7-4--|
|------------------------------------------------------------------------------------------------------------|
|------------------------------------------------------------------------------------------------------------|
|------------------------------------------------------------------------------------------------------------|
|------------------------------------------------------------------------------------------------------------|
|------------------------------------------------------------------------------------------------------------|

|-7-4-7-4-7-4-7-4-7-4-7-4-7-4-7-4-9--9--9--9--9--9--9--9--9-0-0-0-0-0-0-0-0-0-0-0-0-0-0-0-0-0-0-0-0-0-0-0-0--|
|----------------------------------------------------------------------------------------------------------x-|
|----------------------------------------------------------------------------------------------------------x-|
|----------------------------------------------------------------------------------------------------------x-|
|----------------------------------------------------------------------------------------------------------x-|
|------------------------------------------------------------------------------------------------------------|

Over the second time this is played again;

|----12--------11-------7---------7---------7------------------|
|-12----12--12----12--5--------5---------5---------------------|
|--------------------------------------------------------------|
|--------------------------------------------------------------|
|--------------------------------------------------------------|
|--------------------------------------------------------------|

Then there is another Chorus.
Chorus 3
|-----------------------------------------------------------------|
|-----------------------------------------------------------------|
|--6-6-6-6-6-6-6-6--------1-1-1-1-1-1-1-1-------------------------|
|--7-7-7-7-7-7-7-7--------2-2-2-2-2-2-2-2-------------------------|
|--7-7-7-7-7-7-7-7--------2-2-2-2-2-2-2-2-------------------------|
|--5-5-5-5-5-5-5-5--------0-0-0-0-0-0-0-0-------------------------|
                   x4                     x4
This is played over the chords
|-12-11------12-11-----4-(5)-(4)-(5)-(4)-(5)-(4)-(5)-(4)-(5)-(4)-5-4-(5)-(4)-(5)-(4)-(5)-(4)-(5)-(4)-(5)-(4)-(5)-|
|-------12-9-------12-9------------------------------------------------------------------------------------------|
|----------------------------------------------------------------------------------------------------------------|
|----------------------------------------------------------------------------------------------------------------|
|----------------------------------------------------------------------------------------------------------------|
|----------------------------------------------------------------------------------------------------------------|

|-----------------------------------------------------------------|
|-----------------------------------------------------------------|
|--6-6-6-6-6-6-6-6--------1-1-1-1-1-1-1-1-------------------------|
|--7-7-7-7-7-7-7-7--------2-2-2-2-2-2-2-2-------------------------|
|--7-7-7-7-7-7-7-7--------2-2-2-2-2-2-2-2-------------------------|
|--5-5-5-5-5-5-5-5--------0-0-0-0-0-0-0-0-------------------------|
                   x4                     x4
This is played over the chords
|-12-11------12-11-----4-(5)-(4)-(5)-(4)-(5)-(4)-(5)-(4)-(5)-(4)-5-4-(5)-(4)-(5)-(4)-(5)-(4)-(5)-(4)-------------|
|-------12-9-------12-9------------------------------------------------------------------------------------------|
|-------------------------------------------------------------------------------------------------------slide----|
|-------------------------------------------------------------------------------------------------------plec up--|
|----------------------------------------------------------------------------------------------------------------|
|----------------------------------------------------------------------------------------------------------------|

Bridge 2
|-------------------------------------------------------------------------------------------------|
|-------------------------------------------------------------------------------------------------|
|-1-1-1-1-1-1-1-1-1-1-1-1-------------------------------------------------------------------------|
|-2-2-2-2-2-2-2-2-2-2-2-2-6-6-6-6-6-6-6-6-6-6-6-6-7-7-7-7-7-7-7-7-7-7-7-7-7-7-7-7-7-7-7-7-7-7-7-7-|
|-2-2-2-2-2-2-2-2-2-2-2-2-6-6-6-6-6-6-6-6-6-6-6-6-7-7-7-7-7-7-7-7-7-7-7-7-7-7-7-7-7-7-7-7-7-7-7-7-|
|-0-0-0-0-0-0-0-0-0-0-0-0-4-4-4-4-4-4-4-4-4-4-4-4-5-5-5-5-5-5-5-5-5-5-5-5-5-5-5-5-5-5-5-5-5-5-5-5-|

Also this is played over the A chord 4 times.

|----------------------|
|------------5----7----|
|--4----6--------------|
|----------------------|
|----------------------|
|----------------------|

This whole Bridge is played 4 times.

Outro
(Effect used at beginning)
|----------------------------------------------------|
|----------------------------------------------------|
|----------------------------------------------------|
|----------------------------------------------------|
|--9---------------13-----------14-------------------|
|----------------------------------------------------|

Play this two times then end on

|--------------------|
|--------------------|
|--------------------|
|----9---------------|
|--------------------|
|--------------------|

LYRICS (Order)

INTRO

VERSE 1
Thinking back, thinking of you, 
Summer time think it was June, 
Yeah I think it was June. 
Laying back head on the grass, 
Chewing gum, having some laughs, 
Yeah having some laughs 

CHORUS
You made me feel like the one, 
You made me feel like the one, 
The one 
        X2

VERSE 2
Drinking back drinking for two, 
Drinking with you, 
When drinking was new. 
Sleeping in the back of my car, 
We never went far, 
We wouldn\'t need to go far 

CHORUS 2
You made me feel like the one, 
You made me feel like the one, 
The one 

You made me feel like the one, 
You made me feel like the one, 
The one 

BRIDGE 1
I don\'t know where we are going now, 
I don\'t know where we are going now 

VERSE 3
Wake up, cold coffee and juice, 
Remembering you, what happened to you. 
I wonder if we\'ll meet again, 
And talk about life since then, 
And talk about why did it end 

CHORUS 3
You made me feel like the one, 
You made me feel like the one, 
The one 

You made me feel like the one, 
You made me feel like the one, 
The one 

BRIDGE 2
I don\'t know where we are going now, 
I don\'t know where we are going now 

So take a look at me now,
So take a look at me now,
So take a look at me now,
So take a look at me now,
So take a look at me now,
So take a look at me now,
So take a look at me now,
So take a look at me now,
So take a look at me now,

OUTRO
So take a look at me now,
So take a look at me now,
So take a look at me now,
So take a look at me now,
So take a look at me now,
So take a look at me now,
So take a look at me now,
So take a look at me now,
So take a look at me now,
Comments