Stereophonics - Caravan Holiday Chords & Tabs

 

Caravan Holiday Chords & Tabs

Stereophonics Chords & Tabs

Version: 1 Type: Tab 0 ratings
1 star 2 stars 3 stars 4 stars 5 stars
comments

Caravan Holiday Tab

#----------------------------------PLEASE NOTE---------------------------------#
#This file is the author's own work and represents their interpretation of the #
#song. You may only use this file for private study, scholarship, or research. #
#------------------------------------------------------------------------------##
#

Song: Caravan Holiday
Artist: Stereophonics
LP: J.E.E.P
Tabbed by Sam Pentney
[ Tab from: http://www.guitartabs.cc/tabs/s/stereophonics/caravan_holiday_tab.html ]
This is the part played at the start of this song and repeated a couple of times
through the song. i'll do the chords when i can be bothered.
i think this is how it goes. if it aint 100% then it sounds right anyway and its
simple to play 
please e-mail me at sam_pentney@hotmail.com if ya dont like it.

e--------------------------------------|
b--------------------------------------|
g--------------------------------------|
d---0---0---0---0---2---2---2---2------|
a-----0---0---0---0---0---0---0---0----|
e--------------------------------------|


e--------------------------------------|
b--------------------------------------|
g--------------------------------------|
d---0---0---0---0---2------------------|
a-----0---0---0---0-----0---0---0------|
e---------------------2---2---2---0----|

So simple!!!!!!!!!!!!
Comments