Stereophonics - Bartender And The Thief Chords & Tabs

 

Bartender And The Thief Chords & Tabs

Stereophonics Chords & Tabs

Version: 4 Type: Tab 0 ratings
1 star 2 stars 3 stars 4 stars 5 stars
comments

Bartender And The Thief Tab

   
stereophonics best song of the lot
and still no one can get this right

intro
e|---------------------|
B|---------------------|
G|---------------------|
D|-5-5-5-5-5-5-5-5-5-5-|
A|-5-5-5-5-5-5-5-5-5-5-|
E|-3-3-3-3-3-3-3-3-3-3-|

verse
e|---------------------------|
B|---------------------------|
G|---------------------------|
D|-3-3-3-3-3-x-x-3-x-x-x-3-3-|x2
A|-3-3-3-3-3-x-x-3-x-x-x-3-3-|
E|-1-1-1-1-1-x-x-1-x-x-x-1-1-|

e|---------------------------------|
B|---------------------------------|
G|---------------------------------|
D|-0-0-0-0-3-0-0-3-0-0-0-0---------|x2
A|-------------------------3-3-3-3-|
E|---------------------------------|
whole of verse x2 again

pre-chorus
e|-------------------------|
B|-------------------------|
G|-3-3-3-3-3---------------|
D|-3-3-3-3-3---5-5-5-5-5---|x3
A|-1-1-1-1-1-0-5-5-5-5-5---|
E|-------------3-3-3-3-3-0-|

on 3rd time do this
e|----------------------------------------|
B|----------------------------------------|
G|-3-3-3-3-3------------------------------|
D|-3-3-3-3-3---5-5-5-5-5-5-5-5-5-5-5-5----|
A|-1-1-1-1-1-0-5-5-5-5-5-5-5-5-5-5-5-5----|
E|-------------3-3-3-3-3-3-3-3-3-3-3-3-\8-|
[ Tab from: http://www.guitartabs.cc/tabs/s/stereophonics/bartender_and_the_thief_tab_ver_4.html ]
chorus
e|-----------------------|
B|-----------------------|
G|-7--7-7-7-7------------|
D|-7--7-7-7-7-5--5-5-5-5-|x4
A|-5--5-5-5-5-5--5-5-5-5-|
E|------------3--3-3-3-3-|

verse

pre-chorus

chorus

solo(i think u use a wah wah pedal for this)
e|--------------------|
B|--------------------|
G|---10-10--9--7-7b---|
D|-0----------------0-|x2
A|--------------------|
E|--------------------|

e|-------------------------------------------------------|
B|-------------------------------------------------------|
G|-------------------------------------------------------|
D|-0-0-0-0-3-0-0-3-0-0-0---------0-0-0-0-3-0-0-3-0-0\12~-|
A|-----------------------3-3-3-3-------------------------|
E|-------------------------------------------------------|
then again through the solo but the bit below is after you
have done the solo twice

e|-----------------------------------------------------------|
B|-----------------------------------------------------------|
G|-----------------------------------------------------------|
D|-0-0-0-0-3-0-0-3-0-0-0---------0-0-0-0-3-0-0-3-0-0\12~-14~-|
A|-----------------------3-3-3-3-----------------------------|
E|-----------------------------------------------------------|

pre-chorus

chorus

i think that the end with the doo
doo doo dood  doo doo is the chorus x2
not too sure though
David
Comments