Stereophonics - Bartender And The Thief Chords & Tabs

 

Bartender And The Thief Chords & Tabs

Stereophonics Chords & Tabs

Version: 2 Type: Tab 0 ratings
1 star 2 stars 3 stars 4 stars 5 stars
comments

Bartender And The Thief Tab

   

Song:The Bartender and the Thief
Artist:Stereophonics
Album:Performance and Cocktails
Tabbed By:Cillian O'Hogan (cohogan@tinet.ie)
Tuning:Dropped-D

A guy in school gave me a version of this but it was only half-right so I improved on it as 
best I could, I also tabbed the solo.

INTRO:
e|----------------------------|
B|----------------------------|
G|----------------------------|
D|--5--5--5--5--5--5--5s7--0--|
A|--5--5--5--5--5--5--5s7--0--|
D|--5--5--5--5--5--5--5s7--0--|

VERSE:
e|-----|
B|-----|
G|-----|
D|--3--|played repeatedly
A|--3--|
D|--3--|
[ Tab from: http://www.guitartabs.cc/tabs/s/stereophonics/bartender_and_the_thief_tab_ver_2.html ]
Not sure about this second bit, it is one of these 2:
e|-----------------------------------------------|
B|-----------------------------------------------|
G|-----------------------------------------------|
D|--0--0--0--3--0--0--3--0--0--0--0--0--0--3--3--|
A|--0--0--0--3--0--0--3--0--0--0--0--0--0--3--3--|
D|--0--0--0--3--0--0--3--0--0--0--0--0--0--3--3--|
or:
e|---------------------------------------------------|
B|---------------------------------------------------|
G|-----------10--------10--------------------10--10--|
D|--0--0--0--10--0--0--10--0--0--0--0--0--0--10--10--|
A|--0--0--0--8---0--0--8---0--0--0--0--0--0--8---8---|
D|--0--0--0------0--0------0--0--0--0--0--0----------|

BRIDGE:
e|--------------------|
B|--------------------|
G|--------------------|
D|--8--5--8--5--8--5--|
A|--8--5--8--5--8--5--|
D|--8--5--8--5--8--5--|

CHORUS:
v unsure about this, this is the best i can get
e|--------------------------------------|
B|--------------------------------------|
G|--------------------------------------|
D|--0--0--0--0--0--0--0--5--5--5--5--5--|
A|--0--0--0--0--0--0--0--5--5--5--5--5--|
D|--0--0--0--0--0--0--0--5--5--5--5--5--|

SOLO: (x2)
e|---------------------------------------------------------------------------|
B|---------------------------------------------------------------------------|
G|--10--10--9--7--7--10--10--9--7--7-----------------------------------------|
D|------------------------------------0--0--0--3--0--0--3--0--0--0--0--0--0--|play this line x2
A|---------------------------------------------------------------------------|
D|---------------------------------------------------------------------------|
Comments