Stereomud - Perfect Self Chords & Tabs

 

Perfect Self Chords & Tabs

Stereomud Chords & Tabs

Version: 2 Type: Tab 0 ratings
1 star 2 stars 3 stars 4 stars 5 stars
comments

Perfect Self Tab

Artist- Stereomud
Song- Perfect Self
Tabber- Iconoclast
Tuning- Drop C (Drop D then a whole step down)

Played on Acoustic guitar. The song isnt really set up like other songs (verses, 
chorus and bridge). So ive labels the sections riffs and have a segment of the lyrics 
to tell you where the riff is played.


Riff 1 "settle down you all"
|-----------------------------------|
|-----------------------------------|
|-----3--------5-------2--------5---|
|---0---0----0---0---0---0----0---0-|
|-----------------------------------|
|-5--------8-------4--------7-------|

Riff 2 "it's you and i, begging for life"
|--------------------------------|
|--------------------------------|
|--------------------------------|
|-----7-------7-------5-------5--|
|---3---3---3---3---1---1---1--1-|
|-3-------3-------1-------1------|
[ Tab from: http://www.guitartabs.cc/tabs/s/stereomud/perfect_self_tab_ver_2.html ]
Riff 3 "seems like in death we all become our perfect self"
|------------------------------------------------------|
|--------------------------------------2-------2-------|
|-----3-------5-------7--------2-----------------------|
|---0---0---0---0---0---0------------2---2---2---2-----|
|----------------------------0---0-0-------0-----------|
|-5-------7-------8--------0---------------------------|

|--------------------|
|-----3--------------|
|-------------2------|
|---3---3------------|
|-1---------0---0----|
|---------0----------|

Riff 4 "help comes when i dont even want it" and "seems like in death i'm alive"
|-------------------------------------|
|-------------------------------------|
|-----0-------0-------0---4-----------|
|---4---4---4---4---4---4---5-4-4h5p4-|
|-------------------------------------|
|-2-------2-------0-------------------|

Setup

Riff 1
Riff 2- cant make out a lot of whats going on, dont know if its right, sry. 
Riff 3
Riff 4
Riff 3 (well you play the first few phrases of 3 then you go into 3....you'll get it when u play it)
Riff 4
Comments