Stereomud - Pain Chords & Tabs

 

Pain Chords & Tabs

Stereomud Chords & Tabs

Version: 2 Type: Tab 0 ratings
1 star 2 stars 3 stars 4 stars 5 stars
comments

Pain Tab

   
Author/Artist: Stereomud
Title: Pain
Album: Perfect Self
Transcribed by: Greg Thibodeau
Email: TatteredTorn515M@aol.com

Listen to cd for rhythm and timing

There are a lot of little solos and fills I couldn't get or make them readable

Tuning: C G C F A D (drop D, whole step down)

------------------------------------------------------------------------------
------------------------------------------------------------------------------
--7---------------------------------------------------------------------------
--x---------------------------------------------------------------------------
--5---------------------------------------------------------------------------
------------------------------------------------------------------------------
  Guitar 1 (intro)         hold out with phaser                               

------------------------------------------------------------------------------
------------------------------------------------------------------------------
------------------------------------------------------------------------------
---0-0----------0-0----------0-0----------0-0---------------------------------
---0-0----------0-0----------0-0----------0-0---------------------------------
---0-0----------0-0----------0-0----------0-0---------------------------------
  Guitar 2 (intro) PM                                                         

------------------------------------------------------------------------------
------------------------------------------------------------------------------
---------5555/7777/5555-------------------------------------------------------
---0-0---xxxx/xxxx/xxxx-------------------------------------------------------
---0-0---3333/5555/3333-------------------------------------------------------
---0-0------------------------------------------------------------------------
  Pre-Verse/Interlude                                                         
[ Tab from: http://www.guitartabs.cc/tabs/s/stereomud/pain_tab_ver_2.html ]
------------------------------------------------------------------------------
------------------------------------------------------------------------------
---14-----------14^-------------------------7------------7^-------------------
---x------------x---------------------------x------------x--------------------
---12-----------12--------------------------5------------5--------------------
------------------------------------------------------------------------------
  Verse           bend                                    bend                

------------------------------------------------------------------------------
------------------------------------------------------------------------------
------------------------------------------------------------------------------
--0-0----------3-3----------5-5----------3-3-3-3-----3-3-3-3------------------
--0-0----------3-3----------5-5----------3-3-3-3-----3-3-3-3------------------
--0-0----------3-3----------5-5----------3-3-3-3-----3-3-3-3------------------
  Pre-Chorus                                 ^ ^harmonics^ ^                  

------------------------------------------------------------------------------
------------------------------------------------------------------------------
------------------------------------------------------------------------------
--0-0----------3-3----------5-5-5-5-5-5-5-5-5-5-5-5-5-5-5-5-------------------
--0-0----------3-3----------5-5-5-5-5-5-5-5-5-5-5-5-5-5-5-5-------------------
--0-0----------3-3----------5-5-5-5-5-5-5-5-5-5-5-5-5-5-5-5-------------------
                        PM      . . . . . . . . . .                           

------------------------------------------------------------------------------
------------------------------------------------------------------------------
---5-/-7-/-5-/-7-/-9-/-10-----------------------------------------------------
---x-/-x-/-x-/-x-/-x-/-x---5-------5-3-5--------------------------------------
---3-/-5-/-3-/-5-/-7-/-8---5-------5-3-5--------------------------------------
---------------------------5-------5-3-5--------------------------------------
  Chorus


Comments