Stereomud - Pain Chords & Tabs

 

Pain Chords & Tabs

Stereomud Chords & Tabs

Version: 2 Type: Bass Tab 0 ratings
1 star 2 stars 3 stars 4 stars 5 stars
comments

Pain Bass Tab

Stereomud-Pain

INTRO:4x
G|---------3----------|
D|-----3-5---3-1---1--|
A|---------------3---3|
E|--------------------|
B|-1-1----------------|

VERSE:multiple times
G|---------3------------|
D|-----3-5---5-3-1-1h3p1|
A|----------------------|
E|----------------------|
B|-1-1------------------|

   4x
G|-------------------------|
D|-4-4-4-4----4-4-4-4---4--|
A|--------------------3---3|
E|-------------------------|
B|-------------------------|
[ Tab from: http://www.guitartabs.cc/tabs/s/stereomud/pain_btab_ver_2.html ]
   3x                     4th time
G|----------------------|----------------------|
D|----------------------|----------------------|
A|-1-1--3-3--1-1--3-3---|-1-1--3-3--1-1--3-3--1|
E|----------------------|----------------------|
B|---------------------3|----------------------|

   2x       4x          2x       4x
G|--------|-----------|--------|-----------|
D|---4---4|-----------|---4-6--|-----------|
A|-----6--|-----------|-------6|-----------|
E|--------|-----------|--------|-----------|
B|-1------|-1111--1111|-1------|-1111--1111|

Tyler Mckinney (downpoison13@hotmail.com)
Comments