Stereomud - Leave Back Up Chords & Tabs

 

Leave Back Up Chords & Tabs

Stereomud Chords & Tabs

Version: 1 Type: Tab 0 ratings
1 star 2 stars 3 stars 4 stars 5 stars
comments

Leave Back Up Tab

   
Band: Stereomud
Song: Leave (Back Up)
Tabbed By: Kyle Bull (kyle08@msn.com)
Tunning: Full Step Down...drop c (c G c F A D)


Intro/Chorus (alternate these 2 patters)
D------------------------------------------------------------
A------------------------------------------------------------
F------------------------------------------------------------
C--3-5--XX--3-5--XX--3-5--XX--3-5--XX--5/8-8-8/10-10---------
G--3-5--XX--3-5--XX--3-5--XX--3-5--XX--5/8-8-8/10-10---------
C--3-5--XX--3-5--XX--3-5--XX--3-5--XX--5/8-8-8/10-10---------

D------------------------------------------------------------
A------------------------------------------------------------
F------------------------------------------------------------
C--3-5--XX--3-5--XX--3-5--XX--3-5--XX--5/8-8-3---------------
G--3-5--XX--3-5--XX--3-5--XX--3-5--XX--5/8-8-3---------------
C--3-5--XX--3-5--XX--3-5--XX--3-5--XX--5/8-8-3---------------


Verse 
D-------8-------8---------8------------------
A--8-9----9-8-9----9-8-9----9-8-9-6----------
F--------------------------------------------
C--------------------------------------------
G--------------------------------------------
C--------------------------------------------

[ Tab from: http://www.guitartabs.cc/tabs/s/stereomud/leave_back_up_tab.html ]
Interlude (repeat 4 times)                       (2nd guitar on 4th time)
D-------------------------------------------     ----------------------------
A--666666--------66666----------------------     ----------------------------
F---------777777-------5555--7777-----------     ----------------------------
C-------------------------------------------     -5-5-5-5-5-5---5--6--8------
G-------------------------------------------     -5-5-5-5-5-5---5--6--8------
C-------------------------------------------     -5-5-5-5-5-5---5--6--8------
                                                 (pm on these)

Bridge (1st guitar)(repeat 23 times)
D----------------------------                 -----------------------
A----------------------------                 -----------------------
F----------------------------after 14th time  -----------------------
C----------------------------do this...and    -----------------------
G----------------------------then continue.   -----------------------
C-3h5-5-5--3h5-5-5--3h5-5-5--                 --3/6--6--6/8-8-8------


Bridge(2ns guitar)(start when he says..GO ON!GET OUT...)
D----------------------------------------------------------------------
A---6-8---6-8---9-8---6-8---8/9-9-9/11 11 11-----6-8---6-8---9-8---6-8-
F----------------------------------------------------------------------
C----------------------------------------------------------------------
G----------------------------------------------------------------------
C----------------------------------------------------------------------

Outro                                                    (2nd time end)
D---------------------------------------------------     ------------------
A---------------------------------------------------     ------------------
F---------------------------------------------------     ------------------
C--3--5---6--5---3--5---6--3--5---5/8-8-8/10-10-10--     -5/8-8--3---5-----
G--3--5---6--5---3--5---6--3--5---5/8-8-8/10-10-10--     -5/8-8--3---5-----
C--3--5---6--5---3--5---6--3--5---5/8-8-8/10-10-10--     -5/8-8--3---5-----
                                                                    (ring out)
Comments