Stereomud - End Of Everything Chords & Tabs

 

End Of Everything Chords & Tabs

Stereomud Chords & Tabs

Version: 1 Type: Tab 0 ratings
1 star 2 stars 3 stars 4 stars 5 stars
comments

End Of Everything Tab

   
Stereomud - End of Everything 
Drop D Tuning  (Low to High) D A D G B E

Intro (After Birds) (Repeats Many Times during the songs-behind verses)
|----------------------------------------------|e
|----------------------------------------------|B
|----------------------------------------------|G
|----------------------------------------------|D
|-0-0-0-----0-0-0-0-1--0-0-0-0-----0-0-0-0-1---|A
|-0-0-0-3-0-0-0-0-0-1--0-0-0-0-3-0-0-0-0-0-1---|E

You Will Not Waste My Time (I'll Do Anything) I Want To Anyway
|--------------------------------------------------------------------|e
|--------------------------------------------------------------------|B
|----2-0--0-(0)-0---0-(0)--------------------2-0-(0)-0-0---------0-(0|G
|-0~--------------3-------3-(3)-3-3----------------------3-(3)-3-----|D
|-----------------------------------3-(3)-3--------------------------|A
|--------------------------------------------------------------------|E

This Will Be The End of Everything that you Know! I Know We'll Get Up..
|-5-5-5-5--5--5-5-(5)-5--5-5--5---5-5--5-5-5-5-5--5--5-5-(5)-5-5--|e
|-----------------------------------------------------------------|B
|-----------------------------------------------------------------|G
|-----------------------------------------------------------------|D
|-----------------------------------------------------------------|A
|-----------------------------------------------------------------|E

Don't Even Try To Hold Me Down, Watch Me, Me Fly!
|-5-5-5-5--5-5-(5)-5--5--5--5----5----------|e
|------------------------------3------------|B
|-------------------------------------------|G
|-------------------------------------------|D
|-------------------------------------------|A
|-------------------------------------------|E

That is the way that it is to be Get ready, here i come! Drop it down...
|-5-5-5--5-5-5-5-(5)-5-5-5--5-5--5---5-5--5-5--5-(5)-5-5-5--5-5--5-|e
|------------------------------------------------------------------|B
|------------------------------------------------------------------|G
|------------------------------------------------------------------|D
|------------------------------------------------------------------|A
|------------------------------------------------------------------|E
[ Tab from: http://www.guitartabs.cc/tabs/s/stereomud/end_of_everything_tab.html ]
And When I'm Finished With You, Watch Me, Me Fly!
|-5-5-5--5-5-5-5-(5)---5-5-----5-------------------------------|e
|----------------------------3---------------------------------|B
|--------------------------------(Interlude)-------------------|G
|--------------------------------------------------------------|D
|--------------------------------------------0----0----0----0--|A
|--------------------------------------------0----0----0----0--|E

Have You Ever Been afraid of someone? I've Never Been Afraid of no one
|--------------------------------------------------|e
|--------------------------------------------------|B
|-0-2--2-2-2-2--2-0-0-0---0--0-0-0-0---------------|G
|-------------------------------------0------------|D
|---------------------------------------3-3-3-3----|A
|--------------------------------------------------|E

Have You Ever Been Afraid of someone? I've Never Been Afraid of no one
|-------------------------------------------------3-------|e
|---------------1---------------------------------x-------|B
|-0-2--2-2-2-2----0-0-0--0--0--0-0-0-0------------x-------|G
|---------------------------------------0-------0-0-------|D
|-----------------------------------------3-3-3-----------|A
|---------------------------------------------------------|E

Have You Ever Been Afraid of Someone? I've Never Been Afraid of no one
|-5----3-3---3---3--------3------------------------3--|e
|------x-x---x---x---------------------------------x--|B
|----0-2-2-2-2-2-2-0-0-0----0---0-0-0-0------------x--|G
|----------------------------------------0-------0-0--|D
|------------------------------------------3-3-3------|A
|-----------------------------------------------------|E

Have You Ever Been Afraid of Someone? I've Never Been Afraid, Afraid!
|-------------------------------------0-----9-7-|e
|-Repeat-Last-Line------------------3---3-------|B
|-Until-Yellow-Then---------2---2-2-------------|G
|-----------------------------------------------|D
|-----------------------------------------------|A
|-----------------------------------------------|E

(Gtr 3 w/dist.)
|--------------------------------------------------------------|e
|--------------------------------------------------------------|B
|-----7-8-7----------7-8-----5-----7-8-7---------7-8-----5-7---|G
|-----x---x----------x-------x-----x---x---------x-------x-----|D
|-----5-6-5----------5-6-----3-----5-6-5---------5-6-----3-5---|A
|-0-0--------0-0-0-0-----0-0---0-0-------0-0-0-0-----0-0-------|E

Ra  -  Ven
|-5-3--1-3---(3)----(3)-----(3)-------|e
|-------------------------------------|B
|-------------------------------------|G
|-------------------------------------|D
|-------------------------------------|A
|-------------------------------------|E

|-----------------------------------------------------|e
|-----------------------------------------------------|B
|-------Repeats-Back-To-------------------------------|G
|-------"You-Will-Not-Waste---------------------------|D
|--------My-Time"-Then-Goes-Thru----------------------|A
|--------"Have-You-Ever-Been..."-Until-The-End--------|E
Comments