Stereomud - Dont Be Afraid Chords & Tabs

 

Dont Be Afraid Chords & Tabs

Stereomud Chords & Tabs

Version: 1 Type: Tab 1 rating
1 star 2 stars 3 stars 4 stars 5 stars
comments

Dont Be Afraid Tab

   
Band: Stereomud
Song: Don't Be Afraid
Tabbed By: Joe Reynolds (captinkirk83@hotmail.com)
Tunnning: Full Step Down Drop D (C G C F A D)
h = hermonic

Verse
D|10-10--|
A|-------|
F|-7--7--|
C|-0--0--|
G|-------|
C|-------|

Interlude
D|10-10-x-x-10-10--|
A|------x-x--------|
F|-7--7-x-x--7--7--|
C|-0--0------0--0--|
G|-----------------|
C|-----------------|
[ Tab from: http://www.guitartabs.cc/tabs/s/stereomud/dont_be_afraid_tab.html ]
Chorus
D|-------------------------------------------|
A|-------------------------------------------|
F|-------------------------------------------|
C|-------------------------------------------|
G|--0-0-0-0-3-3-3-3-6-6-6-6-6-6-6-6-2-2-2-2--|
C|--0-0-0-0-3-3-3-3-6-6-6-6-6-6-6-6-2-2-2-2--|

D|---------------------------------------------------------|
A|---------------------------------------------------------|
F|------------------------3--------------------------------|
C|------------------------3--------------------------------|
G|--2-3-0-0--2-3-0-0--x-x-1---2-3-0-0--2-3-0-0--------5----|
C|--2-3-0-0--2-3-0-0--x-x-----2-3-0-0--2-3-0-0--5-5-5---5--|
                                                h h h h h
Bridge
D|----------------------------|
A|----------------------------|
F|----------------------------|
C|----------------------------|
G|-0-3-5-3-5-5-3-0-3-5-3-5-5--|
C|----------------------------|


Comments