Stereofuse - Superhero Chords & Tabs

 

Superhero Chords & Tabs

Stereofuse Chords & Tabs

Version: 1 Type: Bass Tab

Superhero Bass Tab

   
Song: Super hero
Band: Stero fuse
Tabber Stephan R. : cyberbassist@hotmail.com
Original tabber:Buffysguy@shaw.ca.
standard tuning (EADG)

4 Strings version



Intro/verse:
G|--------------------------------|
D|--------------------------------|
A|--------------------------------| 
E|-1-1-4-6-7-6-4-5-4-4-4-4-4-6-4-6|

Chorus:
G|--------------------------------|
D|--------------------------------|
A|-------------------------4-4-4-4| 
E|-4-4-4-4-6-6-6-6-1-1-1-1--------|

Bridge:
G|--------------------------------|
D|--------------------------------|
A|-----------------4-4-4-4-4-3-4-3| 
E|-1-1-1-1-4-4-4-4----------------|


OR 5 Strings version
[ Tab from: http://www.guitartabs.cc/tabs/s/stereofuse/superhero_btab.html ]
intro/verse
G|--------------------------------|
D|--------------------------------|
A|--------------------------------| 
E|-----4-6-7-6-4-5-4-4-4-4-4-6-4-6|
B|-6-6----------------------------|

Chorus:
G|--------------------------------|
D|--------------------------------|
A|-------------------------4-4-4-4| 
E|-4-4-4-4--6-6-6-6---------------|
B|------------------6-6-6-6-------|


Bridge:
G|--------------------------------|
D|--------------------------------|
A|-----------------4-4-4-4-4-3-4-3| 
E|---------4-4-4-4----------------|
B|-6-6-6-6------------------------|



EnJOy!
cyberbassist@hotmail.com

Any comment, correction or insult, please email me!