Stereofuse - Everything Acoustic Chords & Tabs

 

Everything Acoustic Chords & Tabs

Stereofuse Chords & Tabs

Version: 2 Type: Chords 0 ratings
1 star 2 stars 3 stars 4 stars 5 stars
comments

Everything Acoustic Chords

   
-------------------------------------------------------------------------------
			     Everything(acoustic) - StereoFuse
-------------------------------------------------------------------------------

Tabbed by:David
Email:simonbd@millsaps.edu				

Tuning: Drop all strings 1/2 step to Eb tuning


	The Song itself is actually very simple and follows the same basic 
chord progression.

Intro and Verse:

    G      G/B      D (add color)   G/B      D       C9   (add color)

e|--3-------3-------2-3-2-0-2-3------3-------2-3-----3------------------------|
B|--3-------3-------3----------------3-------3-------3------------------------|
G|--0-------0-------2----------------0-------2-------0----0-------------------|
D|--0-------0-------0----------------0-------0-------2----0h20----------------|
A|--2-------2------------------------2---------------3----3-------------------|
E|--3-------0------------------------0----------------------------------------|
[ Tab from: http://www.guitartabs.cc/tabs/s/stereofuse/everything_acoustic_crd_ver_2.html ]
Chorus:
        G                   G/B     G         G/B
	Cause I would give everything that I own
	
	G               G/B           G         G/B
	Id give you my heart and this skin and these bones

	C9		                                                         
	The sun the moon the earth the sky Id never even stopped to wonder why

	G  G/B  G   G/B

	D         (Add color)
	I would do anything 

	C9
	I would give everything 
	C9         G  G/B   D       
	To be your everything

	G/B   D    C9

Refrain:


	Am     G/B      C9        D
	But if ever you should stray 
	
	Am     G/B      C9        D
	Just sing along and I will play

	Am            G/B                  C9                           D
	Look into your hands Im slipping through them like a tiny grain of    sand


===============================================================================
Comments