Stereofish - Jerry Springer Show Chords & Tabs

 

Jerry Springer Show Chords & Tabs

Stereofish Chords & Tabs

Version: 1 Type: Tab 0 ratings
1 star 2 stars 3 stars 4 stars 5 stars
comments

Jerry Springer Show Tab

This band is currently unsigned...


Intro 
Part 1
e|--------------||--------------||--------------||--------------|
B|--------------||--------------||--------------||--------------|
G|----77-55-77--||----77-55-77--||----77-55-77--||----77-5------|
D|-55-77-55-77--||-55-77-55-77--||-55-77-55-77--||-55-77-5------|
A|-55-55-33-55--||-55-55-33-55--||-55-55-33-55--||-55-55-3------|
E|-33-----------||-33-----------||-33-----------||-33-----------|
Part 2
e|--------------||--------------||--------------||----------------|
B|--------------||--------------||--------------||----------------|
G|----55-77-555-||----55-77-555-||----55-77-555-||----55-77-55----|
D|-55-55-77-555-||-55-55-77-555-||-55-55-77-555-||-55-55-77-55-5~-|
A|-55-33-55-333-||-55-33-55-333-||-55-33-55-333-||-55-33-55-33-5~-|
E|-33-----------||-33-----------||-33-----------||-33----------3~-|


Verse 1 (bass only)


Interlude 
e|--------------||--------------|
B|--------------||--------------|
G|----55-77-555-||----55-77-555-|
D|-55-55-77-555-||-55-55-77-555-|
A|-55-33-55-333-||-55-33-55-333-|
E|-33-----------||-33-----------|


Verse 2
e|--------------||--------------||--------------||--------------|
B|--------------||--------------||--------------||--------------|
G|----55-77-555-||----55-77-555-||----55-77-555-||----55-77-555-|
D|-55-55-77-555-||-55-55-77-555-||-55-55-77-555-||-55-55-77-555-|
A|-55-33-55-333-||-55-33-55-333-||-55-33-55-333-||-55-33-55-333-|
E|-33-----------||-33-----------||-33-----------||-33-----------|
PM ***********     ***********     ***********     ***********


Interlude 
e|--------------||--------------||--------------|
B|--------------||--------------||--------------|
G|----55-77-555-||----55-777777-||-777777777777-|
D|-55-55-77-555-||-55-55-777777-||-777777777777-|
A|-55-33-55-333-||-55-33-555555-||-555555555555-|
E|-33-----------||-33-----------||--------------|


Chorus 
e|--------------||--------------||--------------||--------------|
B|--------------||--------------||--------------||--------------|
G|----77-55-77--||----77-55-77--||----77-55-77--||----77-5------|
D|-55-77-55-77--||-55-77-55-77--||-55-77-55-77--||-55-77-5------|
A|-55-55-33-55--||-55-55-33-55--||-55-55-33-55--||-55-55-3------|
E|-33-----------||-33-----------||-33-----------||-33-----------|
Then for the second part of chorus, use hard downstrokes.
e|--------------||--------------||--------------||--------------|
B|--------------||--------------||--------------||--------------|
G|----77-55-77--||----77-55-77--||----77-55-77--||----77-5------|
D|-55-77-55-77--||-55-77-55-77--||-55-77-55-77--||-55-77-5------|
A|-55-55-33-55--||-55-55-33-55--||-55-55-33-55--||-55-55-3------|
E|-33-----------||-33-----------||-33-----------||-33-----------|


Interlude
e|--------------||--------------|
B|--------------||--------------|
G|----55-77-555-||----55-77-555-|
D|-55-55-77-555-||-55-55-77-555-|
A|-55-33-55-333-||-55-33-55-333-|
E|-33-----------||-33-----------|


Verse 3(bass only)


Interlude
e|--------------||--------------|
B|--------------||--------------|
G|----55-77-555-||----55-77-555-|
D|-55-55-77-555-||-55-55-77-555-|
A|-55-33-55-333-||-55-33-55-333-|
E|-33-----------||-33-----------|

[ Tab from: http://www.guitartabs.cc/tabs/s/stereofish/jerry_springer_show_tab.html ]
Verse 4
e|--------------||--------------||--------------||--------------|
B|--------------||--------------||--------------||--------------|
G|----55-77-555-||----55-77-555-||----55-77-555-||----55-77-555-|
D|-55-55-77-555-||-55-55-77-555-||-55-55-77-555-||-55-55-77-555-|
A|-55-33-55-333-||-55-33-55-333-||-55-33-55-333-||-55-33-55-333-|
E|-33-----------||-33-----------||-33-----------||-33-----------|
PM ***********     ***********     ***********     ***********


Interlude 
e|--------------||--------------||--------------|
B|--------------||--------------||--------------|
G|----55-77-555-||----55-777777-||-777777777777-|
D|-55-55-77-555-||-55-55-777777-||-777777777777-|
A|-55-33-55-333-||-55-33-555555-||-555555555555-|
E|-33-----------||-33-----------||--------------|


Chorus 
e|--------------||--------------||--------------||--------------|
B|--------------||--------------||--------------||--------------|
G|----77-55-77--||----77-55-77--||----77-55-77--||----77-5------|
D|-55-77-55-77--||-55-77-55-77--||-55-77-55-77--||-55-77-5------|
A|-55-55-33-55--||-55-55-33-55--||-55-55-33-55--||-55-55-3------|
E|-33-----------||-33-----------||-33-----------||-33-----------|
Then for the second part of chorus, use hard downstrokes.
e|--------------||--------------||--------------||--------------|
B|--------------||--------------||--------------||--------------|
G|----77-55-77--||----77-55-77--||----77-55-77--||----77-5------|
D|-55-77-55-77--||-55-77-55-77--||-55-77-55-77--||-55-77-5------|
A|-55-55-33-55--||-55-55-33-55--||-55-55-33-55--||-55-55-3------|
E|-33-----------||-33-----------||-33-----------||-33-----------|


Bridge
e|-0------------||-0------------||-3------------||-2------------|
B|-0------------||-1------------||-3------------||-3------------|
G|-0------------||-2------------||-0------------||-2------------|
D|-2------------||-0------------||-0------------||-0------------|
A|-2------------||-3------------||-2------------||--------------|
E|-0------------||--------------||-3------------||--------------|

e|-0------------||-0------------||-3------------||--------------|
B|-0------------||-1------------||-3------------||--------------|
G|-0------------||-2------------||-0------------||-7-7--7777----|
D|-2------------||-0------------||-0------------||-7-5--7777----|
A|-2------------||-3------------||-2------------||-5-5--5555----|
E|-0------------||--------------||-3------------||--------------|		


Interlude 
e|--------------||--------------||--------------|
B|--------------||--------------||--------------|
G|----55-77-555-||----55-777777-||-777777777777-|
D|-55-55-77-555-||-55-55-777777-||-777777777777-|
A|-55-33-55-333-||-55-33-555555-||-555555555555-|
E|-33-----------||-33-----------||--------------|


Chorus 
e|--------------||--------------||--------------||--------------|
B|--------------||--------------||--------------||--------------|
G|----77-55-77--||----77-55-77--||----77-55-77--||----77-5------|
D|-55-77-55-77--||-55-77-55-77--||-55-77-55-77--||-55-77-5------|
A|-55-55-33-55--||-55-55-33-55--||-55-55-33-55--||-55-55-3------|
E|-33-----------||-33-----------||-33-----------||-33-----------|
Then for the second part of chorus, use hard downstrokes.
e|--------------||--------------||--------------||--------------|
B|--------------||--------------||--------------||--------------|
G|----77-55-77--||----77-55-77--||----77-55-77--||----77-5------|
D|-55-77-55-77--||-55-77-55-77--||-55-77-55-77--||-55-77-5------|
A|-55-55-33-55--||-55-55-33-55--||-55-55-33-55--||-55-55-3------|
E|-33-----------||-33-----------||-33-----------||-33-----------|


Outro
e|--------------||--------------||--------------||--------------|
B|--------------||--------------||--------------||--------------|
G|----55-77-555-||----55-77-555-||----55-77-555-||----55-77-55--|
D|-55-55-77-555-||-55-55-77-555-||-55-55-77-555-||-55-55-77-55--|
A|-55-33-55-333-||-55-33-55-333-||-55-33-55-333-||-55-33-55-33--|
E|-33-----------||-33-----------||-33-----------||-33-----------|
Comments