Stereo Motion - New Face Chords & Tabs

 

New Face Chords & Tabs

Stereo Motion Chords & Tabs

Version: 1 Type: Tab 0 ratings
1 star 2 stars 3 stars 4 stars 5 stars
comments

New Face Tab

   
NEW FACE - Stereo Motion
--------------------------------------------------------------
Formerly known as Phat Chance, Stereo motion is a Christian rock band from the states.

http://www.stereo-motion.com/

Tabbed by:nick schuurman
Email:

Tuning:standard(EADGBe)

INTRO
e|---------------------------------------------------------------|
B|---------------------------------------------------------------|
G|---------------------------------------------------------------|
D|-7-7--4-5-5-4-5 -7-7-4-5-5-4-5--7-7-4-5-5-4-5--7-7-4-5-5-4-5---|
A|-7-7-------------7-7------------5-7------------7-7-------------|
E|-5-5-------------5-5------------5-5------------5-5-------------|

e|---------------------------------------------------------------|
B|---------------------------------------------------------------|
G|---------------------------------------------------------------|
D|-7-7-4-5-5-4-5--7-7-4-5-5-4-5--7-7-4-5-5-4---------------------|
A|-7-7------------7-7------------7-7---------5\3-0-3/5-----------|
E|-5-5------------5-5------------5-5-----------------------------|

e|---------------------------------------------------------------|
B|---------------------------------------------------------------|
G|---------------------------------------------------------------|
D|-7-7-4-5-5-4-5--7-7-4-5-5-4-5--7-7-4-5-5-4---------------------|
A|-7-7------------7-7------------7-7---------5-3-0-3/5-----------|
E|-5-5------------5-5------------5-5-----------------------------|

VERSE 1

e|---------------------------------------------------------------|
B|---------------------------------------------------------------|
G|---------------------------------------------------------------|
D|-7-7--4-5-5-4-5 -7-7-4-5-5-4-5--7-7-4-5-5-4-5--7-7-4-5-5-4-5---|
A|-7-7-------------7-7------------5-7------------7-7-------------|
E|-5-5-------------5-5------------5-5------------5-5-------------|

e|---------------------------------------------------------------|
B|---------------------------------------------------------------|
G|---------------------------------------------------------------|
D|-7-7-4-5-5-4---------------------------------------------------|
A|-7-7---------5-3-0-3/5-----------------------------------------|
E|-5-5-----------------------------------------------------------|

e|---------------------------------------------------------------|
B|---------------------------------------------------------------|
G|---------------------------------------------------------------|
D|-7-7--4-5-5-4-5 -7-7-4-5-5-4-5--7-7-4-5-5-4-5--7-7-4-5-5-4-5---|
A|-7-7-------------7-7------------5-7------------7-7-------------|
E|-5-5-------------5-5------------5-5------------5-5-------------|

e|---------------------------------------------------------------|
B|---------------------------------------------------------------|
G|---------------------------------------------------------------|
D|-7-7-4-5-5-4---------------------------------------------------|
A|-7-7---------5-3-0-3/5-----------------------------------------|
E|-5-5-----------------------------------------------------------|

CHORUS
[ Tab from: http://www.guitartabs.cc/tabs/s/stereo_motion/new_face_tab.html ]
e|---------------------------------------------------------------|
B|---------------------------------------------------------------|
G|-------------------------5-7-7-7-5/7-4h5p4-7-7-7-5/7-4h5p4-----|
D|-7-7-7-7-7-7-7-7-7-7-7-7-5-7-7-7-----------7-7-7---------------|
A|-7-7-7-7-7-7-7-7-7-7-7-7-3-5-5-5-----------5-5-5---------------|
E|-5-5-5-5-5-5-5-5-5-5-5-5---------------------------------------|

e|---------------------------------------------------------------|
B|---------------------------------------------------------------|
G|-------------------------5-7-7-7-7/9-6h7p6-7-7-7-7/9-6h7p6-----|
D|-7-7-7-7-7-7-7-7-7-7-7-7-5-7-7-7-----------7-7-7---------------|
A|-7-7-7-7-7-7-7-7-7-7-7-7-3-5-5-5-----------5-5-5---------------|
E|-5-5-5-5-5-5-5-5-5-5-5-5---------------------------------------|

VERSE 2

e|---------------------------------------------------------------|
B|---------------------------------------------------------------|
G|---------------------------------------------------------------|
D|-7-7-4-5-5-4-5--7-7-4-5-5-4-5--7-7-4-5-5-4---------------------|
A|-7-7------------7-7------------7-7---------5-3-0-3/5-----------|
E|-5-5------------5-5------------5-5-----------------------------|

e|---------------------------------------------------------------|
B|---------------------------------------------------------------|
G|---------------------------------------------------------------|
D|-7-7--4-5-5-4-5 -7-7-4-5-5-4-5--7-7-4-5-5-4-5--7-7-4-5-5-4-5---|
A|-7-7-------------7-7------------5-7------------7-7-------------|
E|-5-5-------------5-5------------5-5------------5-5-------------|

e|---------------------------------------------------------------|
B|---------------------------------------------------------------|
G|---------------------------------------------------------------|
D|-7-7-4-5-5-4---------------------------------------------------|
A|-7-7---------5-3-0-3/5-----------------------------------------|
E|-5-5-----------------------------------------------------------|

(CHORUS)

VERSE 3
  
e|--------------------------------------------------------------------|
B|-10-----------7\5-10----------7\5-10-----------7\5-10-----------7\5-|
G|---9-7-9~-7\5-7\5--9-7-9~-7\5-7\5---9-7-9~-7\5-7\5---9-7-9~-7\5-7\5-|
D|--------------------------------------------------------------------|
A|--------------------------------------------------------------------|
E|--------------------------------------------------------------------|

e|---------------------------------------------------------------|
B|-10-----------7\5-10-------7\5---------7\5-10-------7\5-7-7----|
G|---9-7-9~-7\5-7\5---9-7-9~-7\5-7-7-7\5-7\5---9-7-9~-7\5-7-7-7\5|
D|-------------------------------7-7-7\5------------------5-5-7\5|
A|-------------------------------5-5-----------------------------|
E|---------------------------------------------------------------|

BRIDGE

e|---------------------------------------------------------------|
B|-10-----------10-----------------------------------------------|
G|--9--9p7--6~---9--9p7--6~--------------------------------------|
D|-----7-7--7-------7-7--7---------------------------------------|
A|---------------------------------------------------------------|
E|---------------------------------------------------------------|

(CHORUS)

(END WITH INTRO)

| / slide up
| \ slide down
| h hammer-on
| p pull-off
| ~ vibrato
| + harmonic
| x Mute note
Comments