Steppenwolf - Magic Carpet Ride Chords & Tabs

 

Magic Carpet Ride Chords & Tabs

Steppenwolf Chords & Tabs

Version: 1 Type: Bass Tab 0 ratings
1 star 2 stars 3 stars 4 stars 5 stars
comments

Magic Carpet Ride Bass Tab

Magic Carpet Ride - Steppenwolf

   main riff           x2
G|-----------------|---------------------------------|
D|-----------------|---------/55-3h5p3-5-5-3h5p3-5---|
A|55-3----55-3-----|---1--3-----5-----5---5-----5-5--|
E|----3-3-----303--|3------------------------------3-|
[ Tab from: http://www.guitartabs.cc/tabs/s/steppenwolf/magic_carpet_ride_btab.html ]
  instrumental part riffs
|------------|-----------|
|------------|-----------|
|77-5h7p5----|-7-7-7-5-5-|
|--7-----70--|--------7--|


  2nd instrumental part   x2
|--------------------------------33333333--------------------------|
|55555555--------33333333----------------3333333311111111----------|
|--------55555555--------33333333------------------------11111111--|
|------------------------------------------------------------------|

tabbed by Achilles (blue_sincere@hotmail.com)
Comments