Steppenwolf - Born To Be Wild Chords & Tabs

 

Born To Be Wild Chords & Tabs

Steppenwolf Chords & Tabs

Version: 1 Type: Bass Tab 0 ratings
1 star 2 stars 3 stars 4 stars 5 stars
comments

Born To Be Wild Bass Tab

Born To Be Wild - Steppenwolf

bass comes in at about 0:03--after guitar plays one measure 

Intro
  (x3)
G|------------|7/9-7-97----|
D|------------|-----9--97\-|
A|---5-7------|------------|
E|5/7-7-------|------------|
[ Tab from: http://www.guitartabs.cc/tabs/s/steppenwolf/born_to_be_wild_btab.html ]
Verse
G|-------------------------------------|
D|-------------------------------------|
A|7-777--57-7-77-5-7-777-57-7-77-simile|
E|------7-------7-7-----7--------------|

Prechorus riff     Prechorus end
G|-----------9-7--|----------------|
D|5-557-77--5---7-|----5---7---5---|
A|--------75-----7|7---------------|
E|----------------|----------------|

Chorus riff
"born to be wild"
G|--------------|
D|--------------|
A|7--77--5--4-5-|
E|--------------|

tabbed by Achilles (blue_sincere@hotmail.com)
Comments