Stephen Speaks - Song For A Dancer Chords & Tabs

 

Song For A Dancer Chords & Tabs

Stephen Speaks Chords & Tabs

Version: 1 Type: Tab 0 ratings
1 star 2 stars 3 stars 4 stars 5 stars
comments

Song For A Dancer Tab

   
Stephen Speaks- "Song for a Dancer"
Tabbed by Dan S.
www.geocities.com/dangt14/ss

Capo on 5th fret

--------------
----0--3-2-3--
-2------------
---0----------
--0----2-0-2--
-2--3--------- (repeat throughout verse)

She dances
Footsteps like raindrops patter across the stage
Second glances
She pirouettes and slowly fades away
Lost my chances
Who holds the broom that will sweep her off her feet
Hopeless romantic
When the lights on the stage fade and just our eyes meet

[ Tab from: http://www.guitartabs.cc/tabs/s/stephen_speaks/song_for_a_dancer_tab.html ]
 D		  A		     Bm			G(3fret)
-2---2---2---2----0---0---0---0-----------------------------------------
-------------------------------------3---3---3---3----------------------
--------------------------------------------------------4---4---4---4---
-0-0-0-0-0-0-0-0--------------------------------------------------------
------------------0-0-0-0-0-0-0-0----2-2-2-2-2-2-2-2--------------------
--------------------------------------------------------3-3-3-3-3-3-3-3-


And I wonder what would it be 
If for once she was dancing with me
She seems content to be dancing alone
So I'll sit and sigh from my seat
Comments