Stephen Speaks - Passeger Seat Chords & Tabs

 

Passeger Seat Chords & Tabs

Stephen Speaks Chords & Tabs

Version: 1 Type: Tab 0 ratings
1 star 2 stars 3 stars 4 stars 5 stars
comments

Passeger Seat Tab

   
song: passenger seat
artist: stephen speaks
transcribed by: mark lester
tunung: standarg (e-a-d-g-b-e)


plucking intro:
1--------------------3-------
2------------3-------3-------
3---------2----0h4-----------
4-------0--------------------
5----------------------------
6----------------------------

Intor/Verse/chorus chords:

Guitar #1
e-------2----2----2--------3---------------------------------
B-------3----3----3--------3--------3------0--2--3-----------
G-------2----2----0--------0--------0------0--0--0-----------
D-------0----x----x--------0--------2------2--2--2-----------
A-------x----4----2--------2---------------------------------
E-------x------------------3---------------------------------
	d  D/C#  D/B       g     Asus7  A9-A7-Asus7
[ Tab from: http://www.guitartabs.cc/tabs/s/stephen_speaks/passeger_seat_tab.html ]
Guitar #2
e-------5----5----0--------0--------x------------------------
B-------7----7----7--------3--------0------------------------
G-------7----7----7--------0--------6------0--6--7-----------
D-------7----7----0--------5--------5------5--5--5-----------
A-------5----4----x--------5--------7------7--7--7-----------
E-------x----x----7--------x--------x------------------------
        d  D/C#  D/B       g     Asus7  A9-A7-Asus7

Note: listen closeLy to the song to get the strumming pattern. 
its quite tricky


d         D/C#
i look at her and have to smile
D/B                      g    
as we go driving for a while
                          Asus7        A9-A7-Asus7
her hair blowing in the open windows of my car
d      D/C#
as we go, the traffic lights, 
D/B                           g  
i watch them glimmer in her eyes
                          a        A9-A7-Asus7   
in the darkness of the evening
d             D/C#        D/B
and i've got all that i need
                   g               a  A9-A7-Asus7
right here in the passenger seat
d                   D/C#        D/B
and i can't keep my eyes on the road
                    g               a  A9-A7-Asus7
knowing that she's inches from me
(Repeat guitar part for the WHOLE song)

I havnt finished the solo part yet. 
For more stephen speaks songs email me at Mklester@yaoo.com
tnx!!





















Comments