Stephen Speaks - Out Of My League Chords & Tabs

 

Out Of My League Chords & Tabs

Stephen Speaks Chords & Tabs

Version: 2 Type: Tab

Out Of My League Tab

Out of My League Intro - Stephen Speaks
Standard Tuning, No Capo

Hey this is my first tab. I love this band!

E|----------|-----------|-----------|-0--------|
B|-------1--|-0---------|---------3-|-1--3--1--| 
G|-------2--|-0---2---0-|------0----|----------|
D|----------|-----------|-----------|----------| 
A|----3-----|-----------|-3---------|----------| 
E|-1--------|-3---------|-----------|-3--------|
[ Tab from: http://www.guitartabs.cc/tabs/s/stephen_speaks/out_of_my_league_tab_ver_2.html ]
E|----------|-----------|-----------|----------|
B|-------1--|-0---------|--------0--|-1--0-----| 
G|-------2--|-0---2---0-|-2------0--|-2--0--2--|
D|----------|-----------|-2---------|-------2--| 
A|----3-----|-----------|-0----3----|-0--------| 
E|-1--------|-3---------|-----------|----------| 

E|----------|-----------|-----------|-0--------|
B|-------1--|-0---------|---------3-|-1--3--1--| 
G|-------2--|-0---2---0-|------0----|----------|
D|----------|-----------|-----------|----------| 
A|----3-----|-----------|-3---------|----------| 
E|-1--------|-3---------|-----------|-3--------|

E|-------0--|-----------|-----------|--0-------|
B|-------1--|-3------1--|-1---------|--1-------| 
G|----------|-4---------|---------0-|--0-------|
D|----------|-----------|-----------|--2-------| 
A|----0-----|-----------|-----------|--3-------| 
E|-1--------|-3---------|-1---1-----|----------|

  
Tabbed By B. Rich, tororojo34@hotmail.com