Stephen Speaks - Complete Chords & Tabs

 

Complete Chords & Tabs

Stephen Speaks Chords & Tabs

Version: 2 Type: Tab 0 ratings
1 star 2 stars 3 stars 4 stars 5 stars
comments

Complete Tab

I Finally figured out the entire song includeing the chorus.
It is a really awsome song if you have the drum with it. This song was cool b/c while I
was at camp calle the author of this song. Just a little history this song was written
for a girl who loved to sing and had to have surgery. She lost her voice and wasnt able
to sing anymore so he wrote a song for her. This is an awsome song.

This song is played with the capo on the third fret.

[ Tab from: http://www.guitartabs.cc/tabs/s/stephen_speaks/complete_tab_ver_2.html ]
This is the verse
-------------------------------------------------------------3---|
----------------------1------------------------------------------|
-------0------0---------2----------------------------------------|
-----2------0-------------------------wait fot the jimbe---------|
---3------2------------------------------------------------------|
-------------------1---------------------------------------------|

This is the chorus
----------0----------------3------------------------------------|
-------1----1-----------1----1----------------------------------|
---------2----------------2-------------------------------------|
----------------------------------------------------------------|
----------------------------------------------------------------|
-1-1----------------1-1-----------------------------------------|
Comments