Stephen Lynch - Voices In My Head Chords & Tabs

 

Voices In My Head Chords & Tabs

Stephen Lynch Chords & Tabs

Version: 1 Type: Tab

Voices In My Head Tab

*intro**verse*


e|---------3-------------------3------------|
B|---------3-------------------3------------|
G|---------0-------------------0------------|
D|---------0-------------------0------------|
A|---------2-----2--0--2-------2-----2--0--2|
E|------3------------------3----------------|

Thank You All, For Comming To My Show,
You've Been Great, But Now I Have To Go,


e|---------0-------------------0------------|
B|---------0-------------------0------------|
G|---------0-------------------0------------|
D|---------0-------------------0------------|
A|---------2-----2--0--2-------2-----2--0--2|
E|------0------------------0----------------|

Everyone Had A Super Time I Hope,
[ Tab from: http://www.guitartabs.cc/tabs/s/stephen_lynch/voices_in_my_head_tab.html ]
e|---------3-------------------3------------|
B|---------3-------------------3------------|
G|---------0-------------------0------------|
D|---------0-------------------0------------|
A|---------2-----2--0--2-------2-----2--0--2|
E|------3------------------3----------------|

Some Songs Tend To Push The Other Lobe

*chorus*

e|------------------------------------------|
B|------------------------------------------|
G|-------5-----5------7----7----------------|
D|-------5-----5------7----7----------------|
A|-----3-----3------5----5------------------|
E|------------------------------------------|

These Are Things That I Have Said,
But There Are Voices in My Head,
And if You Could Hear Them,
This Is What They'd Say.