Stephen Lynch - Taxi Driver Chords & Tabs

 

Taxi Driver Chords & Tabs

Stephen Lynch Chords & Tabs

Version: 2 Type: Tab 0 ratings
1 star 2 stars 3 stars 4 stars 5 stars
comments

Taxi Driver Tab

By: KrazyKurtKuomos

The other one is pretty wrong and so here is what I think is the exact way to
play it. Its just basically picking at 4 chords: Mainly D and Am, but also C and G

Standard Tuning

Verses:
e------------------------------------------------|
B---3-----1-----3-----1-----3-----1-----3---1-1--|
G---2-----2-----2-----2-----2-----2-----2---2-2--|
D-0---0-------0---0-------0---0-------0----------|
A-------0---0-------0---0-------0---0------------|
E------------------------------------------------|

e--------------------------------------|
B---3-----1-----3-----1-----1-----3----|
G---2-----2-----2-----2-----0-----0----|
D-0---0-------0---0-------2---2--------|
A-------0---0-------0---0-------2---2--|
E--------------------------------------|

No Singing
e------------------------------------------------|
B---3-----1-----3-----1-----3-----1-----3---1-1--|
G---2-----2-----2-----2-----2-----2-----2---2-2--|
D-0---0-------0---0-------0---0-------0----------|
A-------0---0-------0---0-------0---0------------|
E------------------------------------------------|

e------------------------------------------------|
B---3-----1-----3-----1-----3-----1-----3---1-1--|
G---2-----2-----2-----2-----2-----2-----2---2-2--|
D-0---0-------0---0-------0---0-------0----------|
A-------0---0-------0---0-------0---0------------|
E------------------------------------------------|
[ Tab from: http://www.guitartabs.cc/tabs/s/stephen_lynch/taxi_driver_tab_ver_2.html ]
                        And this is what...
e--------------------------------------|
B---3-----1-----3-----1-----1-----3----|
G---2-----2-----2-----2-----0-----0----|
D-0---0-------0---0-------2---2--------|
A-------0---0-------0---0-------2---2--|
E--------------------------------------|

...he said                                    he said
e--------------------------------------------------|
B---3-----1-----3-----1-----3-----1-----3-----1----|
G---2-----2-----2-----2-----2-----2-----2-----2----|
D-0---0-------0---0-------0---0-------0---0--------|
A-------0---0-------0---0-------0---0-------0---0--|
E--------------------------------------------------|

  (mumbles w/ Indian accent) best part!
e--------------------------------------------------|  Repeat as needed then
B---3-----1-----3-----1-----3-----1-----3-----1----|
G---2-----2-----2-----2-----2-----2-----2-----2----|
D-0---0-------0---0-------0---0-------0---0--------|
A-------0---0-------0---0-------0---0-------0---0--|
E--------------------------------------------------|

e---------------2--|
B---3-----1-1---3--|
G---2-----2-2---2--|
D-0---0---------0--|
A-------0----------|
E------------------|

Lyrics:
Verse 1:
I flagged him down at the corner and he
Picked me up at the light
I told him where I was going and we
Drove off into the night

Verse 2:
How's it going my friend I asked him
And slowly he turned his head
The taxi driver looked at me and
This is what he said

Chorus
he said...
(w/ Indian Accent)
Thank you very much...(i cant understand too much cause everyone is laughing and applauding)
Do you want me to leave on the left side or the right side
No i cant break a 20 that is far too much money for me to break
Ok ok come again goodbye goodbye alright...
(thats as much as i could gather)
Comments