Stephen Lynch - Special Olympics Chords & Tabs

 

Special Olympics Chords & Tabs

Stephen Lynch Chords & Tabs

Version: 1 Type: Tab 0 ratings
1 star 2 stars 3 stars 4 stars 5 stars
comments

Special Olympics Tab

Special Olympics

Tabbed by: Alan Bracewell
Email: kadence@gmail.com

Tuning: Standard

Pick D 4 times for intro

Verse:  Watch them run watch them fall watch them try to catch a ball
e|--------2-----------2-----------2-----------2------------------------------|
B|------3---3-------3---3-------3---3-------3---3----------------------------|
G|----2-------2---2-------2---2-------2---2-------2--------------------------|
D|--0-----------0-----------0-----------0------------------------------------|
A|---------------------------------------------------------------------------|
E|---------------------------------------------------------------------------|
   Olympics,                        at the special olympics (back to intro)
e|---------3-----------3-----------0-----------0-----------------------------|
B|-------3---3-------3---3-------3---3-------3---3---------------------------|
G|-----0-------0---0-------0---0-------0---2-------2-------------------------|
D|---------------------------------------------------------------------------|
A|---------------------------------------0-----------------------------------|
E|---3-----------2-----------0-----------------------------------------------|
[ Tab from: http://www.guitartabs.cc/tabs/s/stephen_lynch/special_olympics_tab.html ]
Bridge: And i know full well 
e|---------3-----------3-----------0-----------0-----------------------------|
B|-------3---3-------3---3-------3---3-------3---3---------------------------|
G|-----0-------0---0-------0---2-------2---2-------2-------------------------|
D|---------------------------------------------------------------------------|
A|---------------------------0------------0----------------------------------|
E|---3-----------3-----------------------------------------------------------|
   That I will burn in hell
e|--------2-----------0-----------0-----------0------------------------------|
B|------3---3-------3---3-------3---3-------3---3----------------------------|
G|----2-------2---2-------2---2-------2---2-------2--------------------------|
D|--0-----------2------------------------------------------------------------|
A|--------------------------2-----------0------------------------------------|
E|---------------------------------------------------------------------------|
   But those guys playing wheel chair basketball...
e|--------3--------------------0-----------0---------------------------------|
B|------3---3----------------3---3-------3---3-------------------------------|
G|----0-------0----x4------2-------2---2-------2-----------------------------|
D|---------------------------------------------------------------------------|
A|-----------------------0-----------0-----------0---------------------------|
E|--3------------------------------------------------------------------------|
(Back to intro)
For the second verse the guitar stays the same, just change the lyrics.
--------------
Well thats the song, not much to it, its the lyrics that make the song so funny.  Very dark humor.
Comments