Stephen Lynch - Lullaby Chords & Tabs

 

Lullaby Chords & Tabs

Stephen Lynch Chords & Tabs

Version: 4 Type: Tab 0 ratings
1 star 2 stars 3 stars 4 stars 5 stars
comments

Lullaby Tab

   
Standard Tuning
CAPO 2ND FRET!!!

Ok this is my final tab for lullaby by Stephen Lynch.

The chorus is the 'right after daddy gets home from the bar' kinda stuff,
and the bridge is 'please don't cry I swear i'll try' etc.

And the Pre chorus is the 'soon it will all be like it was'.

Hope this is easy enough to understand.

Should be dead on now.


Verses

|-------0-----------0-----------0------------0-------------|
|-----3---3-------3---3-------3----3-------3---3-----------|
|---0-------0---0-------0---0--------0---0-------0---------|
|-------------------------0--------------------------------|
|-------------3------------------------3-------------------|
|-0--------------------------------------------------------|

Then this as final part before pre-chorus

|-------0-----------0-----------0------------0-----|
|-----3---3-------3---3-------3----3-------3-------|
|---0-------0---0-------0---0--------0---0-------0-|
|-------------------------0------------------------|
|-------------3------------------------3-------2---|
|-0------------------------------------------------|

Pre chorus

  Am                      C
|-------0-----------0-----------0-----------0-----|
|-----1---1-------1---1-------1---1-------1---1---|
|---2-------2---2-------2---2-------2---2-------2-|
|-------------0-----------------------2-----------|
|-0-----------------------3-----------------------|
|-------------------------------------------------|
[ Tab from: http://www.guitartabs.cc/tabs/s/stephen_lynch/lullaby_tab_ver_4.html ]
  G                       D
|-------3-----------3-----------2------------2-----|
|-----3---3-------3---3-------3----3-------3---3---|
|---0-------0---0-------0---2--------2---2-------2-|
|-------------0-----------0------------------------|
|--------------------------------------0-----------|
|-3------------------------------------------------|

Chorus

  G           D           Em          C (whichevers easier)
|-------3-----------2-----------0-----------0--------|
|-----3---3-------3---3-------0---0-------1---1------|
|---0-------0---2-------2---0-------0---2-------2----|
|-------------0--------------------------------------|
|-------------------------------------3--------------|
|-3-----------------------0--------------------------|

Bridge - Play this 3 times

C               C/G           D             D/A
|-------0------|-------0-----|-------2-----|-------2-------|
|-----1---1----|-----1---1---|-----3---3---|-----3---3-----|
|----2-------2-|---2-------2-|---2-------2-|---2-------2---|
|--------------|-------------|-0-----------|---------------|
|-3------------|-------------|-------------|-0-------------|
|--------------|-3-----------|-------------|---------------|

Then

 F             C             D             D/A           D
|-------0-----|-------0-----|-------2-----|-------2-----|---------|--------|
|-----1---1---|-----1---1---|-----3---3---|-----3---3---|---------|--------|
|---2-------2-|---0-------0-|---2-------2-|---2-------2-|---------|--------|
|-3-----------|-------------|-0-----------|-------------|-0-------|-(0)----|
|-------------|-3-----------|-------------|-0-----------|---------|--------|
|-------------|-------------|-------------|-------------|---------|--------|

Remember. the studio version ends with the chorus played as chords, whilst some live
versions he just continues the chorus.

Cheers!
Comments