Stephen Lynch - Little Tiny Moustache Chords & Tabs

 

Little Tiny Moustache Chords & Tabs

Stephen Lynch Chords & Tabs

Version: 1 Type: Tab 0 ratings
1 star 2 stars 3 stars 4 stars 5 stars
comments

Little Tiny Moustache Tab

   
-------------------------------------------------------------------------------
			     Little Tiny Moustache- Stephen Lynch
					The Craig Machine
-------------------------------------------------------------------------------
Tabbed by: Alex Coulombe
Email: kinkabobba@hotmail.com

Tuning: standard, capo 3rd fret
[ Tab from: http://www.guitartabs.cc/tabs/s/stephen_lynch/little_tiny_moustache_tab.html ]
Intro/Verse- "
e|---------------------------------------------------------------------------|
B|---------------------------------------------------------------------------|
G|-----0-------0--------0-------0-------0-------0-------0-------0------------|
D|---0---0---0---0----0---0---0---0---0---0---0---0---0---0---0---0----------|
A|---------------------------------------------------------------------------|
E|-3-------3-------2--------2-------0-------0-------2-------2----------------|

Chorus- "I think you're a Nazi..."
e|---------------------------------------------------------------------------|
B|-----0-------0--------0-------0-------0-------0-------0-------0------------|
G|---0---0---0---0----0---0---0---0---0---0---0---0---0---0---0---0----------|
D|---------------------------------------------------------------------------|
A|---------------------------------------------------------------------------|
E|-3-------3-------2--------2-------0-------0-------2-------2----------------|

Verses (relative to capo), strumming G F#/D Em F#/D "You keep extensive files..."

Bridge "you say love is blind..." Bm C Bm C Bm C A E (I think)


end on G

Enjoy!
Comments