Stephen Bishop - It Might Be You Chords & Tabs

 

It Might Be You Chords & Tabs

Stephen Bishop Chords & Tabs

Version: 7 Type: Tab 0 ratings
1 star 2 stars 3 stars 4 stars 5 stars
comments

It Might Be You Tab

   
-------------------------------------------------------------------------------
-------------------It might be you - Stephen Bishops
---------------------------------------------------------------

Tabbed by: Bryan Naval "nheval" P.

Email: if i have a question, or if you want more? See me in my friendster,
nheval_rules@yahoo.com or send me your messages in nheval_rules@hotmail.com

Tuning: standard tuning

e|---------------------------------------------------------------------------|
B|---------------------------------------------------------------------------|
G|----------0---0h2--2h4--0--------------------------------------------------|
D|--------0--0---------------------------------------------------------------|
A|---------------------------------------------------------------------------|
E|----0h2/3------------------------------------------------------------------|

e|---------------------------------------------------------------------------|
B|---------------------------------------------------------------------------|
G|--------0---0h2--2h4--0----------------------------------------------------|
D|------0--0-----------------------------------------------------------------|
A|----2----------------------------------------------------------------------|
E|---------------------------------------------------------------------------|

e|-------------------------------------2--3---2------------------------------|
B|----------------------------------3---3---3--------------------------------|
G|--------0---0h2--2h4-2-----------------------------------------------------|
D|------0--0------------------0----------------------------------------------|
A|----3----------------------------------------------------------------------|
E|---------------------------------------------------------------------------|

e|---------------------------------------------------------------------------|
B|---------------------------------------------------------------------------|
G|----------0---0h2--2h4--0--------------------------------------------------|
D|--------0--0---------------------------------------------------------------|
A|---------------------------------------------------------------------------|
E|----0h2/3------------------------------------------------------------------|
[ Tab from: http://www.guitartabs.cc/tabs/s/stephen_bishop/it_might_be_you_tab_ver_7.html ]
e|---------------------------------------------------------------------------|
B|---------------------------------------------------------------------------|
G|--------0---0h2--2h4--0----------------------------------------------------|
D|------0--0-----------------------------------------------------------------|
A|----2----------------------------------------------------------------------|
E|---------------------------------------------------------------------------|

e|-------------------------------------2--3---2------------------------------|
B|----------------------------------3---3---3--------------------------------|
G|--------0---0h2--2h4-2-----------------------------------------------------|
D|------0--0------------------0----------------------------------------------|
A|----3----------------------------------------------------------------------|
E|---------------------------------------------------------------------------|

e|-------7--------7--------------10---10-------------------------------------|
B|-------8------8---8---7--8-------------------------------------------------|
G|-------7-------------------------------------------------------------------|
D|---------------------------------------------------------------------------|
A|---------------------------------------------------------------------------|
E|---------------------------------------------------------------------------|

e|-----------------------10----------------10-10-----------------------------|
B|-----------------7h8---------8---7--8--------------------------------------|
G|---------------------------------------------------------------------------|
D|---------------------------------------------------------------------------|
A|---------------------------------------------------------------------------|
E|---------7-----------------------------------------------------------------|

e|-----------------------10----------------10-10-----------------------------|
B|-----------------7h8---------8---7--8--------------------------------------|
G|---------------------------------------------------------------------------|
D|---------------------------------------------------------------------------|
A|---------------------------------------------------------------------------|
E|---------8-----------------------------------------------------------------|

e|-------12----8----7-----5---3---2/3----------------------------------------|
B|---------------------------------------------------------------------------|
G|---------------------------------------------------------------------------|
D|---------------------------------------------------------------------------|
A|---------------------------------------------------------------------------|
E|---------------------------------------------------------------------------|
| /  slide up
| \  slide down
| h  hammer-on
| p  pull-off
| ~  vibrato
| +  harmonic
| x  Mute note
===============================================================================
Comments