Stellastarr - My Coco Chords & Tabs

 

My Coco Chords & Tabs

Stellastarr Chords & Tabs

Version: 1 Type: Tab 0 ratings
1 star 2 stars 3 stars 4 stars 5 stars
comments

My Coco Tab

   
My Coco
Stellastarr*
tabbed by flaffles@unc.edu

Intro
e-------------------------------------------------------------------
b-------------------------------------------------------------------
g-------------------------------------------------------------------
d-----3-3---3-3-------3-3---3-3-------3-3---3-3-------3-3-----------
a-------------------------------0-1-1-----1-----1-----------1-1-0---
e-1-1-----1-----0-1-1-----1-----------------------3-3-----3---------

F
Cool my brains and soothe my head 
Bb        Gm       
Stimulate me my Co-co-co 
Sneak into my empty bed 
And educate me my Co-co-co 

In the summer in the spring 
In public places my Co-co-co 
On an island far away 
Lemonade with my Co-co-co 

And when I was down and failing life 
You came and saved me my Co-co-co 
And when they said I'm telling lies 
You believed me my Co-co-co 

And through the noise I heard a song 
You were singing my Co-co-co 
And when you said that nothings wrong 
I believed you my Co-co-co 

But you were gone when I came through 
And I remember you- first 
When someday I'll dance with you 
When I'm dreaming my Co-co-co 

Dm  Bb  Dm  Bb  F

Solo


I sat alone and I didn't care 
I sat two years in the same old chair 
I saw three roads and I didn't know 
Which way to go-go-go 
[ Tab from: http://www.guitartabs.cc/tabs/s/stellastarr/my_coco_tab.html ]
I need some help from a little love 
I need some help from a little above 
And you were there when I was feeling low 
I wont forget you Coco 

I won't forget you Coco [X3]
I won't forget you no no [X4]

Because your my Coco, your my Coco, My Coco 
Your my Coco, Yeah, my Coco


Solo, play 3x an octave higher each time

e---------------------
b---------------------
g---------------------  x 4
d-3-3-3-3-3-3-3-3-3---
a-------------------0-
e---------------------

e---------------------
b---------------------
g---------------------  x 3
d-3-3-3-3-3-3-3-3-3-2-
a---------------------
e---------------------

e---------------------
b---------------------
g---------------------  
d-3-3-3-3-3-3-2-3-5---
a---------------------
e---------------------

e---------------------
b---------------------
g---------------------  x 3
d-3-3-3-3-3-3-2---2---
a---------------3---0-
e---------------------

e---------------------
b---------------------
g--------------------- 
d-3-3-3-3-3-3-2-3-5---
a---------------------
e---------------------

e---------------------
b---------------------
g---------------------  x 2
d-5-5-5-5-5-5-3-2-3---
a---------------------
e---------------------

e---------------------
b---------------------
g---------------------  
d-7-7-7-7-7-7-5-3-2-0-
a---------------------
e---------------------

e---------------------
b---------------------
g---------------------  
d-8-8-8-8-8-8-7-5-3---
a---------------------
e---------------------
Comments