Stellastarr - Moongirl Chords & Tabs

 

Moongirl Chords & Tabs

Stellastarr Chords & Tabs

Version: 1 Type: Tab 0 ratings
1 star 2 stars 3 stars 4 stars 5 stars
comments

Moongirl Tab

   
Stellastarr* - Moongirl	
(Standard tuning)

Tabbed By James McLafferty
j_mclafferty@yahoo.co.uk


Chords
Bm    - x2443x 
A     - x0222x
G     - 3x0033
D     - xx0232
Dsus4 - xx0233


Gtr1 - Shawn
gtr2 - michael


-Intro fig 1 (0:24):
This is played twice

Gtr1 

E  :----------------|----------------|---------------|---------------|
B  :----------------|----------------|---------------|---------------|
G  :----------------|----------------|---------------|---------------|
D  :----------------|--7----5----4---|-----------4---|--------4------|
A  :----5-----5-----|----------------|----4----------|---4---------4-|
E  :7-------7-------|7----7-----7----|5-------5------|5-----5---5----|

E  :----------------|----------------|---------------|---------------|
B  :----------------|----------------|---------------|---------------|
G  :----------------|----------------|---------------|---------------|
D  :----------------|--7----5----4---|-----------4---|--------4------|
A  :----5-----5-----|----------------|----4----------|---4---------4-|
E  :7-------7-------|7----7-----7----|5-------5------|5-----5---5----|
[ Tab from: http://www.guitartabs.cc/tabs/s/stellastarr/moongirl_tab.html ]
E  :----------------|----------------|---------------------------|
B  :----------------|----------------|---------------------------|
G  :----------------|----------------|---------------------------|
D  :--------0-------|--------0-------|---------------------------|
A  :---2-------2----|---4-------4----|---5-7----5---7-5-\4-4-h5--|
E  :3-------------3-|5-------------5-|7------7----7--------------|

E  :----------------|----------------|----------------|
B  :----------------|----------------|----------------|
G  :----------------|----------------|----------------|
D  :-------0--------|-------0--------|----------------|
A  :--2-------2-----|--4-------4-----|5---------------|
E  :3------------3-5|-------------5--|7---------------|


-Intro Fig 2 (1:17)

G | A | Bm        | D A |

G | A | Bm

G | A | D Dsus4 D | A

G | A | Bm

Repeat Intro fig 1 + fig 2 (1:44)


Verse (2:37)

Bm | A | G 

It stays on this chord pattern for the rest of the song
 

(I will add the lead to this at some point)
Comments