Steely Dan - Rose Darling Crds Chords & Tabs

 

Rose Darling Crds Chords & Tabs

Steely Dan Chords & Tabs

Version: 1 Type: Chords 0 ratings
1 star 2 stars 3 stars 4 stars 5 stars
comments

Rose Darling Crds Chords

   
#----------------------------------PLEASE NOTE---------------------------------#
#This file is the author's own work and represents their interpretation of the #
#song. You may only use this file for private study, scholarship, or research. #
#------------------------------------------------------------------------------#

Rose Darling
Steely Dan
From The Album-"Katy Lied"
1975
Written by Donald Fagen/Walter Becker
Tabbed by Ray Scheidler
stingray12002@yahoo.com


[ Tab from: http://www.guitartabs.cc/tabs/s/steely_dan/rose_darling_crds_crd.html ]
  G5                     F5
E-----10---------------------10----------------
B----------10--8------------------10--8--------
G-----------------10--7------------------10--7-
D----------------------------------------------
A-10----------------------8--------------------
E----------------------------------------------


  Bm                  Am7
E----------------------------------------------
B----------------------------------------------
G--------4-----2--4----------------------------
D-----4-----4----------------7-----5-----------
A--2----------------------7-----7-----7--5--3--
E----------------------5-----------------------


   G                   F                (D)
E--10------------------10----------------------
B-----10--8----------------10--8---------------
G------------10--7----------------10--7--------
D----------------------------------------------
A----------------------------------------------
E----------------------------------------------
Comments